Gitaristu.ru
Аккорды Табулатура Начинающим Мастер-класс Софт Видео
Новости Анонсы Гитары Гитаристы Статьи Аватарки Минусовки
Поиск



Популярные подборы




Настройка гитары






Главная > Аккорды > S > Squeeze

Аккорды
Squeeze
-
Pulling Mussels From The Shell bass (табулатура)

Не нашли аккорды к песне? Посмотрите на


Подбор прислал: gitaristu.ru
Band: Squeeze
Album: Argybargy
Song: Pulling Mussels (From the Shell)

All credit to twitch71986!
...whoever the hell that is...


Verse:
G--------------------7-------------------------------5-10-----------|
D-------------22-2--3-------------------2/5*------3-7-------3*------|
A-----------------35----3-5---532-------------------------3---------|
E-55-533-311-1-------------------53---------------------------------|

Pre-Chorus:
G----------------------------------|
D-2222222233333333--------44444444-|
A-----------------33333333---------|
E----------------------------------|

G--------------------------------------|
D-2222222233333333--------444444444444-|
A-----------------33333333-------------|
E--------------------------------------|

Chorus:
G--------------------------------------------------------------------------------------|
D-------------------------------------------------22-2---------------------------------|
A-----------------------------------------------------55-555-5-------------------------|
E-23-5*--533-311-133-355-533-311-133-355-533-311-1------------66-655-54444444433333333-|

G---------------------------------|
D---------5--5----3--3*-----------|
A-3--3----------------------------|
E------------------------------3*-|

Verse:
G--------------------7-------------------------------5-10-----------|
D-------------22-2--3-------------------2/5*------3-7-------3*------|
A-----------------35----3-5---532-------------------------3---------|
E-55-533-311-1-------------------53---------------------------------|

Pre-Chorus:
G----------------------------------|
D-2222222233333333--------44444444-|
A-----------------33333333---------|
E----------------------------------|

G--------------------------------------|
D-2222222233333333--------444444444444-|
A-----------------33333333-------------|
E--------------------------------------|

Chorus:
G--------------------------------------------------------------------------------------|
D-------------------------------------------------22-2---------------------------------|
A-----------------------------------------------------55-555-5-------------------------|
E-23-5*--533-311-133-355-533-311-133-355-533-311-1------------66-655-54444444433333333-|

G---------------------------------|
D---------5--5----3--3*-----------|
A-3--3----------------------------|
E------------------------------3*-|

Bridge:
G--------------------7-------------------------------5-10-----------|
D-------------22-2--3-------------------2/5*------3-7-------3*------|
A-----------------35----3-5---532-------------------------3---------|
E-55-533-311-1-------------------53---------------------------------|

G----------------------------------|
D-22-2222233-33333--------44444444-|
A-----------------33333333---------|
E----------------------------------|

G--------------------------------------|
D-2222222233333333--------444444444444-|
A-----------------33333333-------------|
E--------------------------------------|

G--------------------------------------------------------------------------------------|
D-------------------------------------------------22-2---------------------------------|
A-----------------------------------------------------55-555-5-------------------------|
E-23-5*--533-311-133-355-533-311-133-355-533-311-1------------66-655-54444444433333333-|

G---------------------------------|
D---------5--5----3--3*-----------|
A-3--3----------------------------|
E------------------------------3*-|

Verse:
G--------------------7-------------------------------5-10------------|
D-------------22-2--3-------------------2/5*------3-7------3*--------|
A-----------------35----3-5---532------------------------3-----------|
E-55-533-311-1-------------------53----------------------------------|

Pre-Chorus:
G----------------------------------|
D-2222222233333333--------44444444-|
A-----------------33333333---------|
E----------------------------------|

G--------------------------------------|
D-2222222233333333--------444444444444-|
A-----------------33333333-------------|
E--------------------------------------|

Chorus:
G--------------------------------------------------------------------------------------|
D-------------------------------------------------22-2---------------------------------|
A-----------------------------------------------------55-555-5-------------------------|
E-23-5*--533-311-133-355-533-311-133-355-533-311-1------------66-655-54444444433333333-|

G-----------------------------------|
D---------5--5----3--3*-------------|
A-3--3------------------------------|
E------------------------------3*---|

Outro:
G----------------------------------------------------------------------------------|
D---------------------------------------------22-2---------------------------------|
A-------------------------------------------------55-555-5-------------------------|
E-55-533-311-133-355-533-311-133-355-533-311-1------------66-655-54444444433333333-|

G-----------------------------------|
D---------5--5----3--3*-------------|
A-3--3------------------------------|
E------------------------------3-5*-|

*NOTE*
/ = slide
* = hold note
This tab viewed best on a horizontal page

Другие подборы этого исполнителя

Расскажи друзьям!




Привет, гитарист!

Пройди супер-курс по гитаре и порази всех своей игрой!

Забрать курс!
ВАМ ПОДАРКИ ОТ ПРОЕКТА
"ГИТАРНАЯ РЕВОЛЮЦИЯ"