Gitaristu.ru
Аккорды Табулатура Начинающим Мастер-класс Софт Видео
Новости Анонсы Гитары Гитаристы Статьи Аватарки Минусовки
Поиск



Популярные подборы




Настройка гитары






Главная > Аккорды > S > Squeeze

Аккорды
Squeeze
-
Up The Junction bass (табулатура)

Не нашли аккорды к песне? Посмотрите на


Подбор прислал: gitaristu.ru
-------------------------------------------------------------------------------
			   Up the Junction - Squeeze
-------------------------------------------------------------------------------

Tabbed By : Bill Price
e-mail:

Tuning: Standard

Intro
G|------------------------------------|
D|------------------------------------|
A|--77----77-77-7    Then pause-------|
E|-----55-----------------------------|

Verse 1,2,3,5 and 6
G|------------------------------------------------------------------------------|
D|------------------------------------------------------------------------------|
A|--77----77-44-77----77-44--77777777777----------------------------------------|
E|-----55----------55-----------------------------------------------------------|

Bridge  (I worked all through the winter...)
G|------------------------------------------------------------------------------|
D|------------------------------------------------------------------------------|
A|--44-------22-55--------------------------------------------------------------|
E|-----44-22-------55-33-11-555555555555----------------------------------------|

Verse 4 (This morning at 4:50.......)
G|---------------------------------------------------------------------------|
D|---------------------------------------------------------------------------|
A|--55----55-22-55----55-22-555555555555-------------------------------------|
E|-----33----------33--------------------------------------------------------|

And that's it - you are laughing, top tune, nice to play

| /  slide up
| \  slide down
| h  hammer-on
| p  pull-off
| ~  vibrato
| +  harmonic
| x  Mute note
===============================================================================

Другие подборы этого исполнителя

Расскажи друзьям!




Привет, гитарист!

Пройди супер-курс по гитаре и порази всех своей игрой!

Забрать курс!
ВАМ ПОДАРКИ ОТ ПРОЕКТА
"ГИТАРНАЯ РЕВОЛЮЦИЯ"