Gitaristu.ru
Аккорды Табулатура Начинающим Мастер-класс Софт Видео
Новости Анонсы Гитары Гитаристы Статьи Аватарки Минусовки
Поиск



Популярные подборы




Настройка гитары






Главная > Аккорды > S > Squier Billy

Аккорды
Squier Billy
-
The stroke (табулатура)

Не нашли аккорды к песне? Посмотрите на


Подбор прислал: gitaristu.ru


The Stroke - Billy Squier

    Riff 1
|------------|------------|------------|----------------|
|------------|-5-/-7-7----|------------|----------------|
|-2-/-4-4----|-5-/-7-7----|-2-/-4-4----|----------------|
|-3-/-5-5----|-5-/-7-7----|-3-/-5-5----|-7---5---3---2--|
|-3-/-5-5----|------------|-3-/-5-5----|-7---5---3---2--|
|-1-/-3-3----|------------|-1-/-3-3----|-5---3---1---0--|
                                                                               
    Riff 2
|---------------|---------------|---------------|---------------|
|-6---6-p-5-----|-6---6-p-5-----|-6---6-p-5-----|---------------|
|-5---5---5-----|-5---5---5-----|-5---5---5-----|---------------|
|---------------|---------------|---------------|-------7---5---|
|---------------|---------------|---------------|-------7---5---|
|---------------|---------------|---------------|-------5---3---|
|               |               |               |               |
|---------------|---------------|---------------|---------------|
|-6---6-p-5-----|-6---6-p-5-----|-6---6-p-5-----|---------------|
|-5---5---5-----|-5---5---5-----|-5---5---5-----|---------------|
|---------------|---------------|---------------|--x-x--5---3---|
|---------------|---------------|---------------|--x-x--5---3---|
|---------------|---------------|---------------|--x-x--3---1---|

    Riff 3
|----------------|----------------|----------------|---------------|
|----------------|--7-------------|----------------|--7------------|
|---------5-/-7--|--7-------------|---------5-/-7--|--7------------|
|-3-/-5---5-/-7--|--7--------3--3-|-3-/-5---5-/-7--|--7------------|
|-3-/-5---3-/-5--|--5--------5--3-|-3-/-5---3-/-5--|--5------3-5p3-|
|-1-/-3----------|-----------5--1-|-1-/-3----------|------3h5------|
                                                         pm........
    Riff 4
|----------------|---------------|----------------|----------------|
|-----------5-5--|---------------|-----------5-5--|----------------|
|--5--7-----5-5--|---------------|--5--7-----5-5--|----------------|
|--5--7-----5-5--|---------5--3--|--5--7-----5-5--|---------5--3---|
|--3 -5----------|---------5--3--|--3--5----------|---------5--3---|
|----------------|---------3--1--|----------------|---------3--1---|
|                |               |                |
|----------------|---------------|----------------|----------------|
|-----------5-5--|---------------|-----------5-5--|----------------|
|--5---7----5-5--|---------------|--5---7----5-5--|--riff----------|
|--5---7----5-5--|------5---3----|--5---7----5-5--|------unknown---|
|--3---5---------|------5---3----|--3---5---------|--right---------|
|----------------|------3---1----|----------------|--------now-----|
                                                                               
Now ..
Then ..
[Riff 1]
Don't ..
Gotta ..
Grab ..

[Riff 2]

[Riff 3]
Put ..
Talk ..
[Riff 1]
Spread ..
Keep .....

[Riff 4]
Stroke ..
Could ..
Stroke ..
Stroke..
You ..
Say ..

[Riff 2]

[Riff 3]
Put ..
Work ..
[Riff 1]
First ...
When .....

Better ..
Let ..
Don't ..
Do ....


tabbed by Joey Ferrante (gt7002b@prism.gatech.edu)
---------


Другие подборы этого исполнителя

Расскажи друзьям!




Привет, гитарист!

Пройди супер-курс по гитаре и порази всех своей игрой!

Забрать курс!
ВАМ ПОДАРКИ ОТ ПРОЕКТА
"ГИТАРНАЯ РЕВОЛЮЦИЯ"