Gitaristu.ru
Аккорды Табулатура Начинающим Мастер-класс Софт Видео
Новости Анонсы Гитары Гитаристы Статьи Аватарки Минусовки
Поиск



Популярные подборы




Настройка гитары






Главная > Аккорды > S > Stabbing Westward

Аккорды
Stabbing Westward
-
Haunting me (табулатура)

Не нашли аккорды к песне? Посмотрите на


Подбор прислал: gitaristu.ru



Date: Fri, 25 Apr 2003 20:23:58 -0400
From: SevendustPSU@aol.com
Subject: s/stabbing_westward/haunting_me.tab

Band: Stabbing Westward  
Song: Haunting Me {Acoustic}  
Album: Darkest Days  

Tuning: Standard  
Transcribed by: Farzan Karimi  

#NOTE#  
#This file is the author's own work and represents  
their interpretation of the song. You may only use  
this file for private study, scholarship, or research  
Copyright 2003.  Please give credit where it's due.  Any questions please 
email me at sevendustpsu@aol.com #  


Intro {E} riff (use palm muting -- 'x'):  
||-------------------------------------------  
||-------------------------------------------  
||-------------------------------------------  
||--------9-----9-9-9-9----------------------  
||--9-x-x-9-x-x-9-9-9-9----------x-x---------  
||--7-x-x-7-x-x------------------x-x---------  
||--0-x-x---x-x------------------x-x---------  
{The intro is basically holding the E power chord  
The entire time)  

* Repeat Intro 4 times  

Verse 1:  
* Repeat Intro until pre-chorus  

Pre-Chorus (switch to open chords here, not powerchords):  
E                       C      D     E  
Why can't I let youв^А¦    gooooooooooo  
 C     D      E  
    goooooooooooooo  



Chorus {play 4 times} (again, open chords):  
 E                       C  D       
    Why are you Haunting Me  

Verse 2:  
* There is some variation here from Verse 1, so I'll just  
 tab out the whole thing.  

 Everything about me is a lieeeeeee           Atleast it  
||--------------------------------------------  
||--------------------------------------------  
||--------------------------------------------  
||--------9-----9-9-9-9----------9-----9-9-9-9  
||--9-x-x-9-x-x-9-9-9-9----9-x-x-9-x-x-9-9-9-9 
||--7-x-x-7-x-x------------7-x-x-7-x-x--------  
||--0-x-x---x-x------------0-x-x---x-x-------- 


 feels that way, ...
||-------------------------------------------  
||-------------------------------------------  
||-------------------------------------------  
||--5----------------------7-----------------  
||--5-(9x)-----------------7-(9x)------------  
||--3----------------------5-----------------  
||-------------------------------------------  

Now the truth ...
||------------------------------------------------  
||------------------------------------------------  
||------------------------------------------------  
||--------9-----9-9-9-9--------------9-----9-9-9-9  
||--9-x-x-9-x-x-9-9-9-9--------9-x-x-9-x-x-9-9-9-9 
||--7-x-x-7-x-x----------------7-x-x-7-x-x--------  
||--0-x-x---x-x----------------0-x-x---x-x--------  

 love is real, or love is...
||-------------------------------------------  
||-------------------------------------------  
||-------------------------------------------  
||--5-------------------------------7--------  
||--5-(9x)--------------------------7-(9x)---  
||--3-------------------------------5--------  
||-------------------------------------------  

feeeeeeeeeeel     What ...
||-------------------------------------------  
||-------------------------------------------  
||-------------------------------------------  
||--5-------------------------------9--------  
||--5-(9x)--------------------------9-(9x)---  
||--3-------------------------------7--------  
||-------------------------------------------  

done ...
||-------------------------------------------  
||-------------------------------------------  
||-------------------------------------------  
||--5-------------------------------7--------  
||--5-(9x)--------------------------7-(8x build up here)  
||--3-------------------------------5--------  
||-------------------------------------------  

Chorus {play 4 times}:  
 E{let ring 1st time}    C  D       
    Why are you Haunting Me  

Interlude:  
{The (x) stands for strumming... listen to song for rythm)
     Well I don't know what it is  
||-------------------------------------------  
||-------------------------------------------  
||-------------------------------------------  
||--12--------------------------11-----------  
||--12-(x)----------------------11-(x)-------  
||--10--------------------------9------------  
||-------------------------------------------  

 And I can't seem to make myself     forget  
||-------------------------------------------  
||-------------------------------------------  
||-------------------------------------------  
||--14-----------------------------9---------  
||--14-(x)-------------------------9-(x)----- 
||--12-----------------------------7---------  
||-------------------------------------------  

            Was it something that you said    Or is it  
||-------------------------------------------  
||-------------------------------------------  
||-------------------------------------------  
||--9--10-12----------------------------11---  
||--9--10-12----------------------------11-(x)  
||--7--9--10-----------------------------9---  
||-------------------------------------------  

 all, ....
||-------------------------------------------  
||-------------------------------------------  
||-------------------------------------------  
||-14----------------------------------------  
||-14-(x)------------------------------------  
||-12----------------------------------------  
||-------------------------------------------  

Back to Intro riff (2x)  
Chorus  
End with Verse 1 chords  


Другие подборы этого исполнителя

Расскажи друзьям!




Привет, гитарист!

Пройди супер-курс по гитаре и порази всех своей игрой!

Забрать курс!
ВАМ ПОДАРКИ ОТ ПРОЕКТА
"ГИТАРНАЯ РЕВОЛЮЦИЯ"