Gitaristu.ru
Аккорды Табулатура Начинающим Мастер-класс Софт Видео
Новости Анонсы Гитары Гитаристы Статьи Аватарки Минусовки
Поиск



Популярные подборы




Настройка гитары






Главная > Аккорды > S > Stabbing Westward

Аккорды
Stabbing Westward
-
Wasted (табулатура)

Не нашли аккорды к песне? Посмотрите на


Подбор прислал: gitaristu.ru



From: Arduini216@cs.com
Date: Mon, 7 Jan 2002 14:37:04 EST
Subject: s/stabbing_westward/wasted.tab

Title: Wasted
Artist: Stabbing Westward
Album: Stabbing Westward, 2001 Koch Records
Transcribed by: Joe Arduini=20
=09=09arduini216@cs.com

Tuning: Standard (Low to High - EADGBE)

Intro Lead:

E---------------------------
B---------------------------
G---------0-----3--2-----0--
D---0--3-----0--------3-----
A---------------------------
E---------------------------


E---------------------------------
B---------------------------------
G---------0-----3--2--0--6--------
D---0--3-----0--------------3--2--
A---------------------------------
E---------------------------------


E---------------------------------------
B---------------------------------------
G---------0-----3--2-----0--------------
D---0--3-----0--------3-----3--2-----0--
A---------------------------------3-----
E---------------------------------------

Rhythm Intro Chords: 4X

   G5   F5   E5         D5
E------------------  ---------  Play this chord
B------------------  ---------  at end of fourth=20
G-------10---9-----  ----7----  time to start
D---5---10---9-----  ----7----  into verse 1
A---5---8----7-----  ----5----
E---3--------------  ---------=20



Chorus:


    D5  A#5   G5   F5   G5
E---------------------------
B---------------------------
G---7--------------10---12--
D---7----8----5----10---12--
A---5----8----5----8----10--
E--------6----3-------------


                  it's time I faced...=20

    D5  A#5   G5  F(oct)  E(oct)   D5
E-------------------------------------
B-------------------------------------
G---7--------------10------9-------7--
D---7----8----5--------------------7--
A---5----8----5----8-------7-------5--
E--------6----3-----------------------


Verses:


E---------------------------
B-----------13------13------
G-------14--------------14--
D---12----------12----------
A---------------------------
E---------------------------


E---------------------------
B-----------12------12------
G-------14--------------14--
D---12----------12----------
A---------------------------
E---------------------------


E---------------------------
B-----------11------11------
G-------14--------------14--
D---12----------12----------
A---------------------------
E---------------------------


E-----------10------10------
B---------------------------
G-------14--------------14--
D---12----------12----------
A---------------------------
E---------------------------


Interlude Chords (Before Solo)  2X


     Dm              Fmaj7

When I reach the end...

     Dm      Fmaj7     Am

Will anything I've done...


           EADGBE        X=3Dnot played
    =20
    Dm     XX0231
   Fmaj7   XX3210
    Am     X02210

Solo: Listen to song for rhythm (this pattern plays 2X)


E------------------------------------------------------
B---15------15------15------15------13------13---------
G-------14------14------14------14------12------12-----
D------------------------------------------------------
A------------------------------------------------------
E------------------------------------------------------


E------------------------------------------------------
B---13------13-----11------11------11------11----------
G-------12-----12------10------10------10------10------
D------------------------------------------------------
A------------------------------------------------------
E------------------------------------------------------


E------------------------------------
B------------------------------------
G---12--12--12--12--12--12--12--12---
D------------------------------------
A------------------------------------
E------------------------------------



*That wraps my first ever tab , hope it works out
ok for everyone.

Any questions, comments=20
email me at arduini216@cs.com

http://www.angelfire.com/pa5/brokenhourglass


Другие подборы этого исполнителя

Расскажи друзьям!




Привет, гитарист!

Пройди супер-курс по гитаре и порази всех своей игрой!

Забрать курс!
ВАМ ПОДАРКИ ОТ ПРОЕКТА
"ГИТАРНАЯ РЕВОЛЮЦИЯ"