Gitaristu.ru
Аккорды Табулатура Начинающим Мастер-класс Софт Видео
Новости Анонсы Гитары Гитаристы Статьи Аватарки Минусовки
Поиск



Популярные подборы




Настройка гитары






Главная > Аккорды > S > Staggered Crossing

Аккорды
Staggered Crossing
-
Heart attack that s a drag (табулатура)

Не нашли аккорды к песне? Посмотрите на


Подбор прислал: gitaristu.ru


Standard Tuning

Intro:
I think this is the right chord, if not, it’s close

E-|-------------------------------------------------------------|--
B-|-------------------------------------------------------------|--
G-|----22----22----22-22-2---------------------------------------------|--
D-|----22----22----22-22-2---------------------------------------------|--
A-|----00----00----00-00-0---------------------------------------------|--
e-|-------------------------------------------------------------|--
                         hold                             

Verse:
-|------------------------------------------------------------|--
-|--------------------------------------------------|--
-|------22-2-2---2--222---------------------------------------|--
-|------22-2-2---2--222-------------------|--
-|------00-3-0---3--000----------------------------|--
-|-------------3-----------------------------|--
 Play first two chords the first time through, after that start on the third chord.                                                                

Chorus:
-|-------------------------------------------------------|--
-|--------------------------------------------------------|--
-|---22-----------------------------------------------------|--
-|---22--33--55--22---------------------------------------------|--
-|---00--33--55--22--------------------------------------------|--
-|-------11--33--00---------------------------------------|--
                                        
 
The Outro is the same as the chorus, except after every set of chords there are three quick 
palm mutes. Then the second guitar is doing something like this.
-|-------------------------------------|--
-|-------------------------------------|--
-|----9--5--7--4-----------------------|--
-|----7--3--5--2-----------------------|--
-|-------------------------------------|--
-|-------------------------------------|--
            

This is a great band that really knows how to rock out. This is a song from their last album 
“Last Summer When We Were Famous” (which by the way is definitely worth picking up)
Keep on Rockin’ 

This is my first time tabbing a song, so if there’s something wrong with it I apologize. All comments, complaints and questions are welcome. jayandfini@hotmail.com 



Другие подборы этого исполнителя

Расскажи друзьям!




Привет, гитарист!

Пройди супер-курс по гитаре и порази всех своей игрой!

Забрать курс!
ВАМ ПОДАРКИ ОТ ПРОЕКТА
"ГИТАРНАЯ РЕВОЛЮЦИЯ"