Gitaristu.ru
Аккорды Табулатура Начинающим Мастер-класс Софт Видео
Новости Анонсы Гитары Гитаристы Статьи Аватарки Минусовки
Поиск



Популярные подборы




Настройка гитары






Главная > Аккорды > S > Standells

Аккорды
Standells
-
Try it (аккорды)

Не нашли аккорды к песне? Посмотрите на


Подбор прислал: gitaristu.ru


                                Try It
                      (Joey Levine - Mark Bellack)

Intro:

	(fuzz guitar):

	 G             Bb        C       Bb  C   G
	 v   v   v   v     v   v   v   v     v   v   v   v     v v v v
	-----------------|-----------------|-----------------|---------
	-----------------|-----------------|-----------------|---------
	--------------/3-|------/5-------3-|-5---------------|---------
	/5---------------|-----------------|-----5-----------|---------
	-----------------|-----------------|-----------------|---------
	-----------------|-----------------|-----------------|---------

	(spoken: all right, baby   it's all right
	         I'm gonna tell you ....

Verse 1:

	        G                                         Bb
	By the way you look I can tell that ....
	 C                   G
	Action is my ....
	                                                   Bb
	Come over here, pretty girl....
	     C                       Bb
	But two are needed ....
	                     C                    G
	I'll give you sweet love ....
	Bb                        C
	You think you've seen ....
	                    F   D  F  D
		what's ....

Chorus:

	        G
	C'mon, try it .....
	Try it (....
	Try it (mmm....
	(G)                Bb   C
	Try it ...

Break 1:

	G
	/ / / /  / / / /

	(fuzz guitar:)

	 G
	 v   v   v   v     v   v   v   v     v   v
	-----------------|-----------------|-------
	-----------------|-----------------|-------
	---------------3-|---------5-----3-|-5-----
	-5---------------|-----------------|-----5-
	-----------------|-----------------|-------
	-----------------|-----------------|-------
	                                  (you look...)

Verse 2:

	You look excited and you .....

[repeat chorus]

Break 2:

	G
	/ / / /  / / / /  / / / /  / / / /

[repeat intro riff, 2X]

Bridge:

	 Am                Bm
	Girl, once you've ....
	  C                    D
	You're gonna see .....

Coda [rant to fade]:

	 G
	Come on, try it .....
	Try ....[background voices continue]
	Try it....[fade]


-- another ace 60's tab from Andrew Rogers


Другие подборы этого исполнителя

Расскажи друзьям!




Привет, гитарист!

Пройди супер-курс по гитаре и порази всех своей игрой!

Забрать курс!
ВАМ ПОДАРКИ ОТ ПРОЕКТА
"ГИТАРНАЯ РЕВОЛЮЦИЯ"