Gitaristu.ru
Аккорды Табулатура Начинающим Мастер-класс Софт Видео
Новости Анонсы Гитары Гитаристы Статьи Аватарки Минусовки
Поиск



Популярные подборы




Настройка гитары






Главная > Аккорды > S > Stanley Clarke

Аккорды
Stanley Clarke
-
School Days bass (табулатура)

Не нашли аккорды к песне? Посмотрите на


Подбор прислал: gitaristu.ru
|-9---6---4---0--|-2-4/6--4-----2-|-4/6---4---2----|------------------|
|-7---4-0-2--(0)-|-0-2/4--2-----0-|-2/4---2---0--5|-x--2--------------|
|----------------|----------------|--------------3|-x--0--------------|
|----------------|----------------|----------------|------------------|


|-9---6---4---0--|-2-4/6--4-----2-|-4/6---4---2----|----2-------------|
|-7---4-0-2--(0)-|-0-2/4--2-----0-|-2/4---2---0--5|----2--------------|
|----------------|----------------|--------------3|----0--------------|
|----------------|----------------|----------------|------------------|

 similie on repeat
|-9---6---4---0--|-2-4/6--4-----2-|-4/6---4---2----|----2-------------|
|.7---4-0-2--(0)-|-0-2/4--2-----0-|-2/4---2---0--5|----2--------------|
|.---------------|----------------|--------------3|---(0)-------------|
|----------------|----------------|----------------|------------------|

B - Guitar Solo

 similie on repeats                                         play x10
|-9---6---4---0--|-2-4/6--4-----2-|-4/6---4---2----|----2-------------|
|.7---4-0-2--(0)-|-0-2/4--2-----0-|-2/4---2---0--5|----2--------------|
|.---------------|----------------|--------------3|---(0)-------------|
|----------------|----------------|----------------|------------------|


|-9---6---4---0--|-2-4/6--4-----2-|-4/6---4---2----|------------------|
|-7---4-0-2--(0)-|-0-2/4--2-----0-|-2/4---2---0--5|-4--2--------------|
|----------------|----------------|--------------3|-2--0--------------|
|----------------|----------------|----------------|------------------|

C

 similie on repeat
|-9---6---4---0--|-2-4/6--4-----2-|-4/6---4---2----|------------------|
|.7---4-0-2--(0)-|-0-2/4--2-----0-|-2/4---2---0--5|-x--2--------------|
|.---------------|----------------|--------------3|-x--0--------------|
|----------------|----------------|----------------|------------------|

D - Bass Fig. 2

  T P T  T P T      P   P     P     T    T      T       T
|----------------|------2h4---2---|----------------|----------------|
|.--2------4-----|--5-------------|----------------|---------------.|
|.---------------|----------------|----------------|---------------.|
|-0---0--2---2/3-|----------------|-5----2------5--|----2-----------|

E

|-9---6---4---0--|-2-4/6--4-----2-|-4/6---4---2----|------------------|
|-7---4-0-2--(0)-|-0-2/4--2-----0-|-2/4---2---0--5|----2--------2-----|
|----------------|----------------|--------------3|----0--------------|
|----------------|----------------|----------------|------------------|


|-9---6---4---0--|-2-4/6--4-----2-|-4/6---4---2----|----------12-12-----|
|-7---4-0-2--(0)-|-0-2/4--2-----0-|-2/4---2---0--5|-X--2----------------|
|----------------|----------------|--------------3|-X--0----------------|
|----------------|----------------|----------------|--------------------|

F

 harm-----------------------------------|             P-------------------|       P
|--12-------------|----------------|----------------|-9h11----12p11---9---|
|-------------5--/|-7--------------|----------------|------0--------------|
|-----------------|-0--------------|----------------|---------------------|
|------7----------|----------------|----------------|---------------------|

        P    P                      ~~~     full bend
|-------7----7---|-------7h9p7p6--|-6-------4b-----|-----4h6p4-(4)p2-|
|----------------|---0------------|----------------|-----------------|
|-0--------------|----------------|-0--------------|-----------------|
|----------------|----------------|----------------|--3--------------|

                   full bend
|-2----2h4p2-----|----------------|-2-----12-12------|
|-0-----------5--|-5b--------2----|-2----------------|
|----------------|----------------|-0----------------|
|----------------|----------------|------------------|

G

 similie on repeats                                          play x4
|-9---6---4---0--|-2-4/6--4-----2-|-4/6---4---2----|----2-------------|
|.7---4-0-2--(0)-|-0-2/4--2-----0-|-2/4---2---0--5|----2--------------|
|.---------------|----------------|--------------3|---(0)-------------|
|----------------|----------------|----------------|------------------|

H - Bass Solo

 harm-----------------------------------------------------------------|
|----------------|----------------|----------------|------------------|
|-5---(5)/75----|------(5)-------|-----------5----|-(5)/7 (7)5--------|
|----------------|----------------|----------------|------------------|
|----------------|----------------|----------------|------------------|

-----------------------------------------|
   ~~~
|----------------|----------------|-----------9----|--9h11-----------|
|-(5)------------|----------------|----------------|-----------------|
|----------------|----------------|----------------|-----------------|
|----------------|----------------|----------------|-----------------|

                             ~~~~~                           ~~~~
|-----------------|-9--9h11-(11)-----|-------------9-|--11--(11)--------|
|-------------11--|------------------|----------9----|------------------|
|-----------------|------------------|---------------|------------------|
|-----------------|------------------|---------------|------------------|

                             ~~~~
|-----------9----|--9h11-----11-----|----------9--11--|-11h12-11-9---9h11-|
|-------7--------|------------------|-------9---------|-------------------|
|----------------|------------------|-----------------|-------------------|
|----------------|------------------|-----------------|-------------------|

                                    ~~~
|----------9--11--|-11h12-11---9h11-9-|--------9----9-h-|-11-------9---9-h-|
|-------9---------|----------0--------|----7------------|------9-----------|
|-----------------|-------------------|-----------------|------------------|
|-----------------|-------------------|-----------------|------------------|


|-11------9-11-11h12-|-11-------9---9-h-|-11--------9-9----9-|---12h13-------|
|-----0-9------------|-----9------------|------9-12-----12---|---------------|
|--------------------|------------------|--------------------|---------------|
|--------------------|------------------|--------------------|---------------|


|--------7-9-9-7-9-|--(9)--9/x------|--------7-9-9-7-9-|------7-9-9-7-9-------7-|
|----7-9-----------|----------------|----7-9-----------|--9-9-------------7-9---|
|------------------|----------------|------------------|------------------------|
|------------------|----------------|------------------|------------------------|


|-9-9-7-9-------7-9-9-7-9-------7-|-9-9-7-9------7-9-9-7-9------7-|
|-----------7-9-------------7-9---|----------7-9------------7-9---|
|---------------------------------|-------------------------------|
|---------------------------------|-------------------------------|


|-9-9-7-9------7-9-12-9-7----------|-12h14--12-------12-----9h11-|
|----------7-9------------9-7------|-----------14-12----14-------|
|-----------------------------10-7-|-----------------------------|
|----------------------------------|-----------------------------|

                                                                                 ~~~~
|--------7-9-9-7-12-|-9-7--------7-----|------------12-14h15-14-|-12-------------------------|
|----7-9------------|-----9------------|------12-14-------------|----14-12-------12------12--|
|-------------------|------------------|---14-------------------|----------14-12----14-------|
|-------------------|------------------|------------------------|----------------------------|


|----------11-11----11--11----14-11----------|-----------------11-14-11----------14h16-14-|
|-12-12-14-------14--------14-------14-11----|-------11-14--14----------14-11-------------|
|-----------------------------------------14-|-12-14--------------------------14----------|
|--------------------------------------------|--------------------------------------------|


|-11----------14-11-------------14-11----------|-------------------|
|----14-11----------14-11-------------14-11----|-----------12--11--|
|-------------------------14-12-------------14-|--12----14---------|
|----------12----------------------------------|-------------------|


|---11----11h14--11--|--14-----14h11--11-|----14---11-------|-------12--------14--|
|--------------------|-------------------|------------------|----12--------14-----|
|--------------------|-------------------|--------------14--|-14--------16--------|
|--------------------|-------------------|------------------|---------------------|

         ~~~~                                                     ~~~~                      ~~~~
|--16-18-14--------14-|-12-------12------12-|------------12-12----12|--------------12-12----12------|
|---------------16----|----14-12----14------|---12-12-14-------14---|--------------------14------14-|
|------------16-------|---------------------|-----------------------|-14--12-12-14------------------|
|---------------------|---------------------|-----------------------|-------------------------------|

                                                 ~~~
|-----------12-12-12--------------|-12-12-12----12---------------|
|--12-12-14----------14-----12-14-|----------14-----14-----12-14-|
|------------------------12-------|---------------------12-------|
|---------------------------------|------------------------------|


|-12-12---12h14--12-----------|-12-12-12----12h14--12-----------|
|--------------------12-12-14-|----------14------------12-12-14-|
|-----------------------------|---------------------------------|
|-----------------------------|---------------------------------|

                                                     ~~~~
|-12-12-12-----14h15-14--12----|-12h14--12--------12------12-|
|----------14---------------14-|------------14-12----14------|
|------------------------------|-----------------------------|
|------------------------------|-----------------------------|


|----------12-12----12-----------12-12----12-|-12----12-12----12-12----12-12----12-|
|-12-12-14-------14-----12-12-14-------14----|----14-------14-------14-------14----|
|--------------------------------------------|-------------------------------------|
|--------------------------------------------|-------------------------------------|


|----------12-12----12-12----12-12-|-12----------12-12----12-12----12-12--|
|-12-12-14-------14-------14-------|----12-12-14-------14-------14--------|
|----------------------------------|--------------------------------------|
|----------------------------------|--------------------------------------|


|----------12-12----12-----------12-14-|----------12-14-----------12-14h16--14-12-14-|
|-12-12-14-------14--------12-14-------|----12-14-----------12-14--------------------|
|-----------------------12-------------|-12--------------12--------------------------|
|--------------------------------------|---------------------------------------------|


|----------12--------------------------12-14h16-|-14-12-------------------13----18-21h23-21-|
|-------12----14-12--------------12-14----------|-------14-12-------12-14----17-------------|
|----12-------------14--12-14-14----------------|-------------14-14-------------------------|
|-12--------------------------------------------|-------------------------------------------|

 slide down muted string------------------| 1/2 bend  ~~   ~~-----------------------|        P
|-x-x-x-x-x-x-x-x-x-x-x-x-x-x-x-x-x-x-x-x-|--------------------|------------7-9--9--|
|-----------------------------------------|--------------------|-----9--7-9---------|
|-----------------------------------------|-3b------------3h4--|--------------------|
|-----------------------------------------|-----------6--------|--------------------|

      P    P P P P      P P   P  P P   P    P P P P P P   P   P P   P  P P   P
|-(9)-9----9-9-9-9h11-|-9-9---9--9-9---9--|-9-9-9-9-9-9---9-|-9-9---9--9-9---9-|
|---------------------|-------------------|-----------------|------------------|
|---------------------|-------------------|-----------------|------------------|
|---------------------|-------------------|-----------------|------------------|

  P P P P P    P  P   P   P   P    P  P   P P P P    P   P    P  P  P  P     P    P
|-9-9-9-9-9H11-9--9-|-9---9---9H11-9--9-|-9-9-9-9H11-9---11-|-11-11-11-11H12-11---12-|
|-------------------|-------------------|-------------------|------------------------|
|-------------------|-------------------|-------------------|------------------------|
|-------------------|-------------------|-------------------|------------------------|

       P  P  P  P     P   P    P  P  P  P     P   P   P   P   P P P P   P P P P P    P   P
|-(12)-12-12-12-12H14-12--11-|-11-11-11-11H14-11--9-|-9---9---9-9-9-9-|-9-9-9-9-9H11-9---9-|
|----------------------------|----------------------|-----------------|--------------------|
|----------------------------|----------------------|-----------------|--------------------|
|----------------------------|----------------------|-----------------|--------------------|

      P   P   P P P P   P   P   P P P P   P P P P P    P   P   P   P
|-(9)-9---9---9-9-9-9-|-9---9---9-9-9-9-|-9-9-9-9-9H11-9---9-|-9---9------------------------|
|---------------------|-----------------|--------------------|---------------12-14-14-12-14-|
|---------------------|-----------------|--------------------|---------12-14----------------|
|---------------------|-----------------|--------------------|------------------------------|

                 *off fretboard
|-14-14/23--(23)/26-------------|-------------14-14/23--(23)/26-----7-9-|
|----------------------------12-|-14-14-12-14---------------------9-----|
|----------------------12-14----|---------------------------------------|
|-------------------------------|---------------------------------------|

                                                    1/2 bend           1/4 bend      1/2 bend
|-11----9--11----9-------11-|-(11)-9---11----9--11--11b--|-(11)--9--9--11b----9--11--11b-|
|------------------(11)-----|----------------------------|-------------------------------|
|---------------------------|----------------------------|-------------------------------|
|---------------------------|----------------------------|-------------------------------|

                                                     1/4 bend
|-(11)--9--11--11--11--9--11--|--11--11---11--9--11--11b-|---9--9--11-11-9--11-11-9--11-11-|
|-----------------------------|--------------------------|---------------------------------|
|-----------------------------|--------------------------|---------------------------------|
|-----------------------------|--------------------------|---------------------------------|


|-9--11-11-9--11-11-9--11-11-------|--11-14-11----------11--------11-|
|-----------------------------9-11-|-----------14-11----------14-----|
|----------------------------------|-----------------14--------------|
|----------------------------------|---------------------------------|

       ~~~~      ~~~~~~~~~    ~~~~       ~~~~~~~~     ~~~~       ~~~~~~~
|--14--11----14--11---|---14--11-----14--11---|---14--11-----14--11---|
|---------------------|-----------------------|-----------------------|
|---------------------|-----------------------|-----------------------|
|---------------------|-----------------------|-----------------------|

            ~~~~~                                                          ~~~~~~~~~~~~~
|-(11)--14--11-----14h16-14-|-11-----9--------9--|------------11p9-|-7---7h9------------|
|---------------------------|--------------------|-----------------|--------------------|
|---------------------------|--------------------|-----------------|--------------------|
|---------------------------|--------------------|-----------------|--------------------|

I

 harm------------------------------------------------------------------|
|----------------|----------------|----------------|-------------------|
|---5---(5)/75--|----------------|----------------|--------------------|
|----------------|----------------|----------------|------------10-----|
|----------------|----------------|----------------|-------------------|

                                                                full bend
|----------------|-------2h4---2--|----------------|-----------------|
|----2-----4-----|--5-------------|----------------|------------2b---|
|----------------|----------------|----------------|-----------------|
|-0-----2------3-|----------------|---5---2--------|-5---2-----------|

                                                                 ~~~~~~~
|-----------------|--------2h4---2--|-----------------|----------------|
|-(2)-2-----4-----|--5--------------|-----------------|----------2-----|
|-----------------|-----------------|-----------------|----------------|
|--------2------3-|-----------------|---5---2-------5-|--2-------------|

                                                            ~~~~~~~~~
|----------------|--------2h4---2--|-----------------|----------------|
|----2-----4-----|--5--------------|-----------------|------2---------|
|----------------|-----------------|-----------------|----------------|
|-0-----2------3-|-----------------|--5---2--------5-|--2-2-----------|

                                                            ~~~~~~~~~~
|----------------|--------2h4---2--|-----------------|----------------|
|----2-----4-----|--5--------------|-----------------|------2---------|
|----------------|-----------------|-----------------|----------------|
|-0-----2------3-|-----------------|--5---2--------5-|----x-----------|

                                ~~~~                        ~~~~~~~~~~
|----------------|--------2h4---2--|-----------------|----------------|
|----2-----4-----|--5--------------|-----------------|------2---------|
|----------------|-----------------|-----------------|----------------|
|-0-----2------3-|-----------------|--5---2--------5-|--2-------------|

                                ~~~~                        let ring
|----------------|--------2h4---2--|-----------------|----------------|
|----2-----4-----|--5--------------|-----------------|------2---------|
|----------------|-----------------|-----------------|----------------|
|-0-----2------3-|-----------------|--5---2--------5-|--2-------------|


|----------------|----------------|----------------|----------------|
|----------------|----------------|-(2)------------|----------------|
|----------------|----------------|----------------|----------------|
|----------------|----------------|----------------|----------------|

 H.harm-----------------------------------------------------------------------------|
|-------14(28)-16(32)----------------------|----------------------------------------|
|-17(34)-------------17(37)-15(30)--14(28)-|--16(32)-14(28)-14(28)-16(32)--14(28)---|
|------------------------------------------|----------------------------------------|
|------------------------------------------|----------------------------------------|

----------------------| with Bass Fig. 2------------------------------| x2
|----------------|----------------|----------------|------------------|
|----------------|----------------|----------------|------------------|
|----------------|----------------|----------------|------------------|
|----------------|----------------|----------------|------------------|

J - Outro

                                                    |1,2,3          |
|-9---6---4---0--|-2-4/6--4-----2-|-4/6---4---2----|----2-------------|
|.7---4-0-2--(0)-|-0-2/4--2-----0-|-2/4---2---0--5|----2--------------|
|.---------------|----------------|--------------3|---(0)-------------|
|----------------|----------------|----------------|------------------|

|4               | harm------------------------------------------------|
|---2------12-12-|-----7--------7-/-|-9----97/97/-|-9------------------|
|---2------------|--4-------4-------|---------------|------------------|
|----------------|------------------|---------------|------------------|
|----------------|------------------|---------------|------------------|

Другие подборы этого исполнителя

Расскажи друзьям!




Привет, гитарист!

Пройди супер-курс по гитаре и порази всех своей игрой!

Забрать курс!
ВАМ ПОДАРКИ ОТ ПРОЕКТА
"ГИТАРНАЯ РЕВОЛЮЦИЯ"