Gitaristu.ru
Аккорды Табулатура Начинающим Мастер-класс Софт Видео
Новости Анонсы Гитары Гитаристы Статьи Аватарки Минусовки
Поиск



Популярные подборы




Настройка гитары






Главная > Аккорды > S > Stanley Clarke

Аккорды
Stanley Clarke
-
Silly Putty bass (табулатура)

Не нашли аккорды к песне? Посмотрите на


Подбор прислал: gitaristu.ru
Song: Silly Putty
Artist: Stanley Clarke
Album: Journey To Love

	Ok there are about 100 varations in this song so 
this tab is just gonna be the basic riffs. No one besides stanley clarke himself knows how to play every riff in this song just right, but here is how i believe most of it goes.

Intro:

G|-11h13----------9h11-13-9h11p9------
D|-----------9h11----------------11-9-
A|-----------------------------------
E|--------0*--------------------------

still intro:

G|---------------------------
D|----12h14-11-11h12-9-11-7^--
A|-0*------------------------
E|---------------------------

This is the next little part after the intro:

G|----------------------------------
D|--------------------------5h7-5---
A|-0h4h5--------9---0h4h5/7--------7-
E|-------5h7p0----------------------

This is the main riff/verse: ( lots of variations)

G|--------------------7-
D|-----5--------x-------
A|-4h5-----0h4h5--x-----
E|----------------------

Chorus:

G|-----0----0--------------6-
D|---------------------------
A|---------------------------
E|-5/----------5--5p3---------

	this is the best i can do right now. I'm gonna try to
add some more stanley clarke lines to this archive. 

Send requests, comments to
		ybbob182@hotmail.com

Другие подборы этого исполнителя

Расскажи друзьям!




Привет, гитарист!

Пройди супер-курс по гитаре и порази всех своей игрой!

Забрать курс!
ВАМ ПОДАРКИ ОТ ПРОЕКТА
"ГИТАРНАЯ РЕВОЛЮЦИЯ"