Gitaristu.ru
Аккорды Табулатура Начинающим Мастер-класс Софт Видео
Новости Анонсы Гитары Гитаристы Статьи Аватарки Минусовки
Поиск



Популярные подборы




Настройка гитары






Главная > Аккорды > S > Staples Singers

Аккорды
Staples Singers
-
Ill Take You There bass (табулатура)

Не нашли аккорды к песне? Посмотрите на


Подбор прислал: gitaristu.ru
This is a great song by a band i haven't heard of until
just yesterday.


Intro
G|--------------------------------------------|
D|-------------3------------------3-----------|
A|-3-------------------3-----------------3----|
E|--------------------------------------------|

Verse
G|--------------------------------------|
D|---------------------3----------------|
A|-3---3-----03--0-----------0-3-0------|
E|----------3-----31-------3------------|

Bass Solo
G|-------------------------------------|
D|-14------17h19-17--15----------------|
A|----------------------15-------------|
E|-------------------------13----------|

G|-------------------------------------|
D|----12-10----------------10-10-------|
A|-12-------10---------/12-------------|
E|-------------8-----------------------|

G|-------------------------------------|
D|-14------17h19-17--15----------------|
A|----------------------15-------------|
E|-------------------------13----------|

G|-------------------------------------|
D|----12-10----------------------------|
A|-12-------10-------------------------|
E|-------------8-------8--8------------|

G|-------------|
D|-------------|
A|---0---------|
E|-3---3-------|

Thats it after the solo just go back into the verse
Have fun.
Расскажи друзьям!




Привет, гитарист!

Пройди супер-курс по гитаре и порази всех своей игрой!

Забрать курс!
ВАМ ПОДАРКИ ОТ ПРОЕКТА
"ГИТАРНАЯ РЕВОЛЮЦИЯ"