Gitaristu.ru
Аккорды Табулатура Начинающим Мастер-класс Софт Видео
Новости Анонсы Гитары Гитаристы Статьи Аватарки Минусовки
Поиск



Популярные подборы




Настройка гитары






Главная > Аккорды > S > Star Fucking Hipsters

Аккорды
Star Fucking Hipsters
-
Two Cups Of Tea (табулатура)

Не нашли аккорды к песне? Посмотрите на


Подбор прислал: gitaristu.ru
-------------------------------------------------------------------------------
                                      Two Cups of Tea - Star Fucking Hipsters
-------------------------------------------------------------------------------
Tabbed by: Manny


Tuning: Standard
. - palm mute

Verse (Clean)
e|---------------------------------------------------------------------------|
B|---------------------------------------------------------------------------|
G|-----------------4-4-4-4-4-4-4-4-----------------5-5-5-5-5-5-5-5-----------|
D|-5-5-5-5-5-5-5-5-4-4-4-4-4-4-4-4-2-2-2-2-2-2-2-2-5-5-5-5-5-5-5-5-----------|
A|-5-5-5-5-5-5-5-5-2-2-2-2-2-2-2-2-2-2-2-2-2-2-2-2-3-3-3-3-3-3-3-3-----------|
E|-3-3-3-3-3-3-3-3-----------------0-0-0-0-0-0-0-0---------------------------|
   . . . . . . . . . . . . . . . . . . . . . . . . . . . . . . . .
  
e|---------------------------------------------------------------------------|
B|---------------------------------------------------------------------------|
G|-----------------4-4-4-4-4-4-4-4-5-5-5-5-5-5-5-5-7-7-7-7-7-7-7-7-----------|
D|-5-5-5-5-5-5-5-5-4-4-4-4-4-4-4-4-5-5-5-5-5-5-5-5-7-7-7-7-7-7-7-7-----------|
A|-5-5-5-5-5-5-5-5-2-2-2-2-2-2-2-2-3-3-3-3-3-3-3-3-5-5-5-5-5-5-5-5-----------|
E|-3-3-3-3-3-3-3-3-----------------------------------------------------------|
   . . . . . . . . . . . . . . . . . . . . . . . . . . . . . . . .

e|---------------------------------------------------------------------------|
B|---------------------------------------------------------------------------|
G|-9-9-9-9-9-9-9-9-5-5-5-5-5-5-5-5---------7-7-7-7---------------------------|
D|-9-9-9-9-9-9-9-9-5-5-5-5-5-5-5-5-5-5-5-5-7-7-7-7-5-5-5-5-5-5-5-5-----------|
A|-7-7-7-7-7-7-7-7-3-3-3-3-3-3-3-3-5-5-5-5-5-5-5-5-5-5-5-5-5-5-5-5-----------|
E|---------------------------------3-3-3-3---------3-3-3-3-3-3-3-3-----------|
   . . . . . . . . . . . . . . . . . . . . . . . . . . . . . . . .

e|---------------------------------------------------------------------------|
B|---------------------------------------------------------------------------|
G|---------------------------------------------------------------------------|
D|-5-5-5-5-4-4-4-4-5-5-5-5-5-5-5-5-------------------------------------------|
A|-5-5-5-5-4-4-4-4-5-5-5-5-5-5-5-5-------------------------------------------|
E|-3-3-3-3-2-2-2-2-3-3-3-3-3-3-3-3-------------------------------------------|
   . . . . . . . . . . . . . . . . 

Piano Part :?

Chorus (Distorted)

e|---------------------------------------------------------------------------|
B|---------------------------------------------------------------------------|
G|-----------------4-4-4-4-4-4-4-4-----------------5-5-5-5-5-5-5-5-----------|
D|-5-5-5-5-5-5-5-5-4-4-4-4-4-4-4-4-2-2-2-2-2-2-2-2-5-5-5-5-5-5-5-5-----------|
A|-5-5-5-5-5-5-5-5-2-2-2-2-2-2-2-2-2-2-2-2-2-2-2-2-3-3-3-3-3-3-3-3-----------|
E|-3-3-3-3-3-3-3-3-----------------0-0-0-0-0-0-0-0---------------------------|

e|---------------------------------------------------------------------------|
B|---------------------------------------------------------------------------|
G|-----------------4-4-4-4-4-4-4-4-5-5-5-5-5-5-5-5-7-7-7-7-7-7-7-7-----------|
D|-5-5-5-5-5-5-5-5-4-4-4-4-4-4-4-4-5-5-5-5-5-5-5-5-7-7-7-7-7-7-7-7-----------|
A|-5-5-5-5-5-5-5-5-2-2-2-2-2-2-2-2-3-3-3-3-3-3-3-3-5-5-5-5-5-5-5-5-----------|
E|-3-3-3-3-3-3-3-3-----------------------------------------------------------|

e|-------------------------------------------------------------------------|
B|-------------------------------------------------------------------------|
G|-9-9-9-9-9/11\9--5-5-5-5-5/7\5---------7-7-7-7---------------------------|
D|-9-9-9-9-9/11\9--5-5-5-5-5/7\5-5-5-5-5-7-7-7-7-5-5-5-5-5-5-5-5-----------|
A|-7-7-7-7-7/9-\7--3-3-3-3-3/5\3-5-5-5-5-5-5-5-5-5-5-5-5-5-5-5-5-----------|
E|-------------------------------3-3-3-3---------3-3-3-3-3-3-3-3-----------|
   . . . .         . . . .       . . . . . . . . . . . . . . . .  


e|---------------------------------------------------------------------------|
B|---------------------------------------------------------------------------|
G|---------------------------------------------------------------------------|
D|-5-5-5-5-4-4-4-4-5-5-5-5-5-5-5-5-------------------------------------------|
A|-5-5-5-5-4-4-4-4-5-5-5-5-5-5-5-5-------------------------------------------|
E|-3-3-3-3-2-2-2-2-3-3-3-3-3-3-3-3-------------------------------------------|
   . . . . . . . . . . . . . . . .


Song Order:
Verse 1- 3x times

Chorus1- 1  time

Verse 2- 2x times

Chorus2- 2x times

Verse 3- 2x times 

----------------------
| /  slide up
| \  slide down
| h  hammer-on
| p  pull-off
| ~  vibrato
| +  harmonic
| x  Mute note
===============================================================================

Другие подборы этого исполнителя

Расскажи друзьям!




Привет, гитарист!

Пройди супер-курс по гитаре и порази всех своей игрой!

Забрать курс!
ВАМ ПОДАРКИ ОТ ПРОЕКТА
"ГИТАРНАЯ РЕВОЛЮЦИЯ"