Gitaristu.ru
Аккорды Табулатура Начинающим Мастер-класс Софт Видео
Новости Анонсы Гитары Гитаристы Статьи Аватарки Минусовки
Поиск



Популярные подборы




Настройка гитары






Главная > Аккорды > S > Star Fucking Hipsters

Аккорды
Star Fucking Hipsters
-
Zombie Christ bass (табулатура)

Не нашли аккорды к песне? Посмотрите на


Подбор прислал: gitaristu.ru
ZOMBIE CHRIST - Star Fucking Hipsters

TABBER: Unicorn Death
EMAIL: Albinojellyfish1@Gmail.com

TUNING: Standard

Very fun.


INTRO:
G|------------------------|
D|------------------------|
A|---3-3-------6-6--------|  x2
E|--------3-3-------6-6---|

G|-----------------------------|
D|-----------------------------|
A|---66666-33333---------------| x2
E|---------------44444-66666---|


VERSE:
G|------------------------------------------|
D|-------------------------------------5----|
A|---3-3-5h6-----------6-6-5h6p5---5-8------|
E|-----------4-4-3h4p3-----------6----------|

G|------------------------------------------|
D|------------------------------------------|
A|---3-3-5h6-----------6-6-5h6p5---5-8-5----|
E|-----------4-4-3h4p3-----------6----------|

G|------------------------------------------|
D|-------------------------------------5----|
A|---3-3-5h6-----------6-6-5h6p5---5-8------|
E|-----------4-4-3h4p3-----------6----------|

G|------------------------------------------|
D|------------------------------------------|
A|---3-3-5h6-----------6-6-5h6p5---5-8-5----|
E|-----------4-4-3h4p3-----------6----------|


PRECHORUS:
G|-------------------|    |------------------|
D|-------------------|    |------------------|
A|---33-----66-------| x3 |---33-------------| 
E|------333----666---|    |------333-66666---| 


CHORUS:
G|----------------------------|
D|----------------------------|
A|---666*--333*---------------| x2
E|---------------444*--666*---|

*Play each triplet 8 times.


VERSE

PRECHORUS

CHORUS

INTERLUDE/FINAL CHORUS:
G|----------------------------|
D|----------------------------|
A|---666*--333*---------------|
E|---------------444*--666*---|

*Play each triplet 4 times.

Repeat until the end.


ENDING:
G|---------|
D|---------|
A|---6/0---|
E|---------|

Другие подборы этого исполнителя

Расскажи друзьям!




Привет, гитарист!

Пройди супер-курс по гитаре и порази всех своей игрой!

Забрать курс!
ВАМ ПОДАРКИ ОТ ПРОЕКТА
"ГИТАРНАЯ РЕВОЛЮЦИЯ"