Gitaristu.ru
Аккорды Табулатура Начинающим Мастер-класс Софт Видео
Новости Анонсы Гитары Гитаристы Статьи Аватарки Минусовки
Поиск



Популярные подборы




Настройка гитары






Главная > Аккорды > S > Starflyer 59

Аккорды
Starflyer 59
-
A Housewife Love Song (табулатура)

Не нашли аккорды к песне? Посмотрите на


Подбор прислал: gitaristu.ru
WHOLE STEP DOWN TUNING d,g,c,f,a,d

Intro:
(light dist.)      ->(heavy dist.)
 |------------0------|-------------------------| repeat x4
t|------------0------|-------------------------|
 |------------0------|-------------------------|
a|-2-2---5-7--10-----|-2-2--7-7--10-10-10-10---|
 |-2-2---5-7--10-----|-2-2--7-7--10-10-10-10---|
b|-----0------0------|-0-0--5-5--8--8--8--8----|
              l.r....

Verse:
(light dist. and chorus)
 |-----------------------------------------------------------------|x2
t|-----------------------------------------------------------------|
 |-9-9-9-9-9-9-9-9-7-7-7-7-7-7-7-7-5-5-5-5-5-5-5-5-2-2-2-2-2-2-2-2-|
a|-9-9-9-9-9-9-9-9-7-7-7-7-7-7-7-7-5-5-5-5-5-5-5-5-2-2-2-2-2-2-2-2-|
 |-7-7-7-7-7-7-7-7-5-5-5-5-5-5-5-5-3-3-3-3-3-3-3-3-0-0-0-0-0-0-0-0-|
b|-----------------------------------------------------------------|
   p.m............................................................

(heavy dist.)
 |-------------------------------------|
t|-------------------------------------|
 |------2-2-------4-4------------------|
a|-5-5--2-2--2-2--4-4--5--7--3---------|
 |-5-5--0-0--2-2--2-2--5--7--3---------|
b|-3-3-------0-0--2-2--3--5--1---------|
                       l.r........

Bridge:
(heavy dist.)
 |-----------------------|x4
t|-----------------------|
 |-----------------------|
a|-2-2--7-7--10-10-10-10-|
 |-2-2--7-7--10-10-10-10-|
b|-0-0--5-5--8--8--8--8--|

Verse

Bridge x2

End:
(heavy dist. and feedback)
 |---------------------|x6
t|--0-------0----------|
 |--0-------0----------|
a|--9-------5----------|
 |--9-------5----------|
b|--7-------3----------|
   l.r.................

Другие подборы этого исполнителя

Расскажи друзьям!




Привет, гитарист!

Пройди супер-курс по гитаре и порази всех своей игрой!

Забрать курс!
ВАМ ПОДАРКИ ОТ ПРОЕКТА
"ГИТАРНАЯ РЕВОЛЮЦИЯ"