Gitaristu.ru
Аккорды Табулатура Начинающим Мастер-класс Софт Видео
Новости Анонсы Гитары Гитаристы Статьи Аватарки Минусовки
Поиск



Популярные подборы




Настройка гитары






Главная > Аккорды > S > Starsailor

Аккорды
Starsailor
-
Born again (табулатура)

Не нашли аккорды к песне? Посмотрите на


Подбор прислал: gitaristu.ru



Date: Thu, 4 Dec 2003 19:28:31 -0000
From: darren 
Subject: s/starsailor/born_again.tab


Artist  :  Starsailor
Album   :  Silence is Easy
Title   :  Born Again

Tab by Darren Jones  (g4dget@ntlworld.com)

Chords : NB. open G tuning

    G(no 3rd)           Csus4/7      Csus4/7(intro)         C/D

D |--0----          D |--5----         D |--0----        D |--0----
B |--3----          B |--0----         B |--0----        B |--1----
G |--0----          G |--5----         G |--5----        G |--0----
D |--5----          D |--3----         D |--3----        D |--2----
G |--0----          G |--0----         G |--0----        G |--0----
D |--X----          D |--X----         D |--X----        D |--X----

Intro only

D ------0-----------0-----------0-|--------------------------------
B --------3-----------3-----------|------0-----------0-----------0-
G ----0-----0-----0-----0-----0---|--5-------5---5-------5---5-----
D --5-----------5-----------5-----|----3---3-------3---3-------3---
G 0-----------0-----------0-------|0-----------0-----------0-------
D --------------------------------|--------------------------------


D --------------------------------|--------------------------------
B ------1-----------1-----------1-|------3-----------3-----------3-
G --0-------0---0-------0---0-----|--0-------0---0-------0---0-----
D ----2---2-------2---2-------2---|----5---5-------5---5-------5---
G 0-----------0-----------0-------|0-----------0-----------0-------
D --------------------------------|--------------------------------

Main picking pattern 

D --------------------------------|------5-----------5-----------5-
B ------3-----------3-----------3-|----------0-----------0---------
G --0-------0---0-------0---0-----|--5-----------5-----------5-----
D ----5---5-------5---5-------5---|----3---3-------3---3-------3---
G 0-----------0-----------0-------|0-----------0-----------0-------
D --------------------------------|--------------------------------


D --------------------------------|--------------------------------
B ------1-----------1-----------1-|------3-----------3-----------3-
G --0-------0---0-------0---0-----|--0-------0---0-------0---0-----
D ----2---2-------2---2-------2---|----5---5-------5---5-------5---
G 0-----------0-----------0-------|0-----------0-----------0-------
D --------------------------------|--------------------------------


 G(-3)      Csus4/7             C/D            G(-3)

But for the grace of God, she'd cry herself to sleep


                Csus4/7       C/D           G(-3)    

Oh, it won't be long            Until their hold is broken

Any comments or amendments are welcome.


Другие подборы этого исполнителя

Расскажи друзьям!




Привет, гитарист!

Пройди супер-курс по гитаре и порази всех своей игрой!

Забрать курс!
ВАМ ПОДАРКИ ОТ ПРОЕКТА
"ГИТАРНАЯ РЕВОЛЮЦИЯ"