Gitaristu.ru
Аккорды Табулатура Начинающим Мастер-класс Софт Видео
Новости Анонсы Гитары Гитаристы Статьи Аватарки Минусовки
Поиск



Популярные подборы




Настройка гитары






Главная > Аккорды > S > Starsailor

Аккорды
Starsailor
-
In The Crossifre bass (табулатура)

Не нашли аккорды к песне? Посмотрите на


Подбор прислал: gitaristu.ru
In the Crossfire - Starsailor

This is a pretty cool song, would be good for a band just starting out I think.
This is a perfect as I can make it, listening to it 1000s of times. lol


[Bass comes in at 0:20]

[Intro]
G/---------------------------------------------------------------------------------|
D/---------------------------------------------------------------------------------|
A/--2-2-2-2-2-2-2-2-2-2-2-2-0-0-------------------------------------------00-------|    x2
D/------------------------------------525-2-2-2-2-2-2-2-2-2-2-2-2-2-5-5------------|

[Verse]
G/---------------------------------------------------------------------------------|
D/---------------------------------------------------------------------------------|
A/--2-2--2---------2-2--2--------------------------------------0-------------------|
D/----------4-4--4---------4-4--4-2-2--2-5-2--2-0-2--2--5--------------------------|

G/---------------------------------------------------------------------------------|
D/---------------------------------------------------------------------------------|
A/--2-2--2---------2-2--2----------------------------------------------------------|
D/----------4-4--4---------4-4--4-2-2--2-5-2--22022-2-2-2-2-2-2-2------------------|

[Chorus]
G/---------------------------------------------------------------------------------|
D/---------------------------------------------------------------------------------|
A/--2-2-2-2-2-2-2-2-2-2-2-2-0-0-------------------------------------------00-------|    x2
D/------------------------------------525-2-2-2-2-2-2-2-2-2-2-2-2-2-5-5------------|

[Verse]
G/---------------------------------------------------------------------------------|
D/---------------------------------------------------------------------------------|
A/--2-2--2---------2-2--2--------------------------------------0-------------------|
D/----------4-4--4---------4-4--4-2-2--2-5-2--2-0-2--2--5--------------------------|

G/---------------------------------------------------------------------------------|
D/---------------------------------------------------------------------------------|
A/--2-2--2---------2-2--2----------------------------------------------------------|
D/----------4-4--4---------4-4--4-2-2--2-5-2--22022-2-2-2-2-2-2-2------------------|

[Chorus]
G/---------------------------------------------------------------------------------|
D/---------------------------------------------------------------------------------|
A/--2-2-2-2-2-2-2-2-2-2-2-2-0-0-------------------------------------------00-------|    x2
D/------------------------------------525-2-2-2-2-2-2-2-2-2-2-2-2-2-5-5------------|

[Bridge]
G/---------------------------------------------------------------------------------|
D/---------------------------------------------------------------------------------|
A/----------------------------------------4-4-4-4-4-4-4-4-4-4-4-4-4-4-4-4----------|
D/--4-4-4-4-4-4-4-4-2-2-2-2-2-2-2-2------------------------------------------------|

G/---------------------------------------------------------------------------------|
D/---------------------------------------------------------------------------------|
A/----------------------------------------4-4-4-4-4-4-4-4-4-4-4-4-4----------------|
D/--4-4-4-4-4-4-4-4-2-2-2-2-2-2-2-2------------------------------------------------|

[Chorus]
G/---------------------------------------------------------------------------------|
D/---------------------------------------------------------------------------------|
A/--2-2-2-2-2-2-2-2-2-2-2-2-0-0-------------------------------------------00-------|    x4
D/------------------------------------525-2-2-2-2-2-2-2-2-2-2-2-2-2-5-5------------|

G/--------------------------------------------------------------------------------|
D/--------------------------------------------------------------------------------|
A/--2-(hold on)-------------------------------------------------------------------|
D/--------------------------------------------------------------------------------|

Tabbed by Matty Jackson ^^

Другие подборы этого исполнителя

Расскажи друзьям!




Привет, гитарист!

Пройди супер-курс по гитаре и порази всех своей игрой!

Забрать курс!
ВАМ ПОДАРКИ ОТ ПРОЕКТА
"ГИТАРНАЯ РЕВОЛЮЦИЯ"