Gitaristu.ru
Аккорды Табулатура Начинающим Мастер-класс Софт Видео
Новости Анонсы Гитары Гитаристы Статьи Аватарки Минусовки
Поиск



Популярные подборы




Настройка гитары






Главная > Аккорды > S > Static-x

Аккорды
Static-x
-
Anything But This (табулатура)

Не нашли аккорды к песне? Посмотрите на


Подбор прислал: gitaristu.ru
First time submitting tablature, so sorry for any errors

Anything But This - Static-X
Tabbed by: Guyinacorner
Email: Guyinacorner@gmail.com

Tuning: C-G-C-F-A-D

D|-----------------------------------|
A|-----------------------------------|
F|-----------------------------------|(x4) (ALL PALM MUTED)
C|-----------------------------------|
G|-0-0-0-0-0-0-1-1-1-1-1-1-2-2-2-2-3-|
C|-0-0-0-0-0-0-1-1-1-1-1-1-2-2-2-2-3-|

D|-----|----------------------------------|
A|-----|----------------------------------|
F|-----|----------------------------------|(x4) Then back to beginning
C|-----|----------------------------------|(Don't repeat slide)
G|-12\-|0-0-0-0-0-0-1-1-1-1-1-1-2-2-2-2-3-| (ALL PALM MUTED EXCEPT SLIDE)
C|-12\-|0-0-0-0-0-0-1-1-1-1-1-1-2-2-2-2-3-|

D|----------------------------------------------------------------|
A|----------------------------------------------------------------|
F|---------------------------------------------(x4)-Don't bend 10-| on last repeat
C|----------------------------------------------------------------|
G|----------------------------------------------------------------|
C|-10-10-10-10-0-0-10-10-10-10-0-0-10b11--------------------------|

Pick these fast (try playing along to get the timing right)
D|-------------------------------------------------------|
A|-------------------------------------------------------|
F|-17(x16)-18(x12)-17(x2)-15(x2)-17(x12)-13(x4)-15(x6)-1-|2(x8)
C|-------------------------------------------------------|
G|-------------------------------------------------------|
C|-------------------------------------------------------|

D|-----------------------------------------------------|
A|-----------------------------------------------------|
F|-17(x16)-18(x12)-17(x2)-15(x2)-17(x12)-13(x4)-15(x16-|
C|-----------------------------------------------------|
G|-----------------------------------------------------|
C|-----------------------------------------------------|

D|-------------------------------------------------------|
A|-------------------------------------------------------|
F|-17(x16)-18(x12)-17(x2)-15(x2)-17(x12)-13(x4)-15(x6)-1-|2(x8)
C|-------------------------------------------------------|
G|-------------------------------------------------------|
C|-------------------------------------------------------|

D|------------------------------------------------------------------------------
A|------------------------------------------------------------------------------
F|-17(x16)-18(x12)-17(x2)-15(x2)-17(x2)-13(x4)-15(x2)-12(x4)-14(x2)-10(x4)-12(x2)
C|------------------------------------------------------------------------------
G|------------------------------------------------------------------------------
C|------------------------------------------------------------------------------
(x4)
------------------------|
------------------------|
-8(x4)-10(x2)-8(x2)-7---|
------------------------|
------------------------|
------------------------|

D|------------------------------------------------------------------|
A|------------------------------------------------------------------|
F|----------------------------------------------(x4)- Don't bend 10-| on last repeat
C|------------------------------------------------------------------|
G|------------------------------------------------------------------|
C|-10-10-10-10-0-0-10-10-10-10-0-0-10b11----------------------------|

D|-------------------------------------------------------------------------------|
A|-------------------------------------------------------------------------------|
F|-17(x32)-15(x32)-17(x32)-18(x32)-17(x16)-18(x12)-17(x2)-15(x2)-13(x4)-15(x6)-1-|2(x8)
C|-------------------------------------------------------------------------------|
G|-------------------------------------------------------------------------------|
C|-------------------------------------------------------------------------------|

D|-------------------------------------------------------------------------------
A|-------------------------------------------------------------------------------
F|-17(x16)-18(x12)-17(x2)-15(x2)-17(x2)-13(x4)-15(x2)-12(x4)-14(x2)-10(x4)-12(x2)
C|-------------------------------------------------------------------------------
G|-------------------------------------------------------------------------------
C|-------------------------------------------------------------------------------
(x4)
-----------------------|
-----------------------|
-8(x4)-10(x2)-8(x2)-7--|
-----------------------|
-----------------------|
-----------------------|


D|-----------------------------------|
A|-----------------------------------|
F|-----------------------------------|(x4) (ALL PALM MUTED)
C|-----------------------------------|
G|-0-0-0-0-0-0-1-1-1-1-1-1-2-2-2-2-3-|
C|-0-0-0-0-0-0-1-1-1-1-1-1-2-2-2-2-3-|

D|-----|----------------------------------|
A|-----|----------------------------------|
F|-----|----------------------------------|(x4)
C|-----|----------------------------------|(Don't repeat slide)
G|-12\-|0-0-0-0-0-0-1-1-1-1-1-1-2-2-2-2-3-| (ALL PALM MUTED EXCEPT SLIDE)
C|-12\-|0-0-0-0-0-0-1-1-1-1-1-1-2-2-2-2-3-|

D|----------------------------------------------|
A|----------------------------------------------|
F|----------------------------------------------|(x8)
C|----------------------------------------------|
G|----------------------------------------------|
C|-10-10-10-10-0-0-10-10-10-10-0-0-10b11--------|

Fade out:
D|---------------------------------------------------|
A|---------------------------------------------------|
F|---------------------------------------------------|
C|---------------------------------------------------|
G|---------------------------------------------------|
C|-10-10-10-10-0-0-10-10-10-10-0-0-10b12-------------|

\  slide down
b  bend string

Другие подборы этого исполнителя

Расскажи друзьям!




Привет, гитарист!

Пройди супер-курс по гитаре и порази всех своей игрой!

Забрать курс!
ВАМ ПОДАРКИ ОТ ПРОЕКТА
"ГИТАРНАЯ РЕВОЛЮЦИЯ"