Gitaristu.ru
Аккорды Табулатура Начинающим Мастер-класс Софт Видео
Новости Анонсы Гитары Гитаристы Статьи Аватарки Минусовки
Поиск



Популярные подборы




Настройка гитары






Главная > Аккорды > S > Static-x

Аккорды
Static-x
-
Bled for days (аккорды)

Не нашли аккорды к песне? Посмотрите на


Подбор прислал: gitaristu.ru



From: Mike Tysor 
Subject: s/static-x/bled_for_days.crd
Date: Mon, 14 Jan 2002 04:27:27 +0000

Static-X /Wisconsin Death Trip /Bled For Days

Drop -D Tuning I believe


Intro


------------------------------------------------------------
------------------------------------------------------------
------------------------------------------------------------
------------------------------------------------------------
---1-1----1-1----1-1----4---1-----1-1----1-1----1-1----4--1-
---1-1----1-1----1-1----4---1-----1-1----1-1----1-1----4--1-
---1-1----1-1----1-1----4---1-----1-1----1-1----1-1----4--1-
repeat 4x



------------------------------------------------------------
------------------------------------------------------------
------------------------------------------------------------
-----2-----0-----2-----0-----2-----0-----2-----0------------
-----2-----0-----2-----0-----2-----0-----2-----0------------
-----2-----0-----2-----0-----2-----0-----2-----0------------

repeat 2x




------------------------------------------------------------
------------------------------------------------------------
------------------------------------------------------------
-----1-----2-1-----2-1-----2-1-----1------1-----1-----1-----
-----1-----2-1-----2-1-----2-1-----1------1-----1-----1-----
-----1-----2-1-----2-1-----2-1-----1------1-----1-----1-----
						repeat




------------------------------------------------------------
------------------------------------------------------------
------------------------------------------------------------
-----2-----2-----2-----2---77777777777777777777777777777777-
-----2-----2-----2-----2------------------------------------
-----2-----2-----2-----2------------------------------------




------------------------------------------------------------
------------------------------------------------------------
------------------------------------------------------------
88888888888888888888888888888888----------------------------
------------------------------------------------------------
------------------------------------------------------------


Другие подборы этого исполнителя

Расскажи друзьям!




Привет, гитарист!

Пройди супер-курс по гитаре и порази всех своей игрой!

Забрать курс!
ВАМ ПОДАРКИ ОТ ПРОЕКТА
"ГИТАРНАЯ РЕВОЛЮЦИЯ"