Gitaristu.ru
Аккорды Табулатура Начинающим Мастер-класс Софт Видео
Новости Анонсы Гитары Гитаристы Статьи Аватарки Минусовки
Поиск



Популярные подборы




Настройка гитары






Главная > Аккорды > S > Static-x

Аккорды
Static-x
-
Burning inside (табулатура)

Не нашли аккорды к песне? Посмотрите на


Подбор прислал: gitaristu.ru



Date: Mon, 30 Jan 2006 21:21:26 -0500
From: Mike Tysor 
Subject: s/static-x/burning_inside.tab

Band:Static-X
Song:Burning Inside
Album:  Beneath...Between...Beyond...

This is a cover originally by Ministry

DROP D TUNING
Intro:

2x
----------------------------------------------------
----------------------------------------------------
----------------------------------------------------
----------------------------------------------------
-8-7----8-7----8-7----8-7-7-5----13-8-8-7-----------
-8-7----8-7----8-7----8-7-7-5----13-8-8-7-----------

Then play intro as verse
4x

Refrain 1:
2x

----------------------------------------------------
----------------------------------------------------
----------------------------------------------------
----------------------------------------------------
-8-7-------8-7-------8-7-------8-7-7-7-5--13-8-8-7--
-8-7-------8-7-------8-7-------8-7-7-7-5--13-8-8-7--


Refrain 2:
----------------------------------------------------
----------------------------------------------------
----------------------------------------------------
----------------------------------------------------
-8-7-----------8-7-----------8-7--------------------
-8-7-7777777---8-7-7777777---8-7-7777777------------

----------------------------------------------------
----------------------------------------------------
----------------------------------------------------
----------------------------------------------------
-8-7-7-5----13-8-8-7--------------------------------
-8-7-7-5----13-8-8-7--------------------------------



Chorus:
----------------------------------------------------
----------------------------------------------------
----------------------------------------------------
----------------------------------------------------
-7-7-7-5----13-8-8----7-7-7-5--13-8-8---------------
-7-7-7-5----13-8-8----7-7-7-5--13-8-8---------------


Другие подборы этого исполнителя

Расскажи друзьям!




Привет, гитарист!

Пройди супер-курс по гитаре и порази всех своей игрой!

Забрать курс!
ВАМ ПОДАРКИ ОТ ПРОЕКТА
"ГИТАРНАЯ РЕВОЛЮЦИЯ"