Gitaristu.ru
Аккорды Табулатура Начинающим Мастер-класс Софт Видео
Новости Анонсы Гитары Гитаристы Статьи Аватарки Минусовки
Поиск



Популярные подборы




Настройка гитары






Главная > Аккорды > S > Static-x

Аккорды
Static-x
-
Cold (табулатура)

Не нашли аккорды к песне? Посмотрите на


Подбор прислал: gitaristu.ru



From: Miguel Arballo 
Subject: s/static-x/cold.tab
Date: Fri, 08 Mar 2002 21:17:52 -0800

Song: Cold

Artist: Static-X
Album: Machine
Tab Type: Guitar
Tabbed by:  Miguel (bahamut122@hotmail.com)

	I KNOW THIS IS RIGHT BECAUSE IT TOOK ME A LONG ASS TIME TO FIGURE OUT.
	IT SOUNDS VERY ACCURATE. WELL HERE IT IS COLD BY STATIC-X. ENJOY     

Tuning: C G C F A D

Intro and Verse: Just kinda pound on the strings with the pick. You will 
understand
		 if you have heard the song. Also two guitars play the intro. Both
		 are tabbed on this, one plays the high part.

1st Guitar - Full Blown Distortion
D |---------------------------|
A |---------------------------|
F |---------------------------|
C |--0--0----0-----0--0---0---|
G |--0--0----0-----0--0---0---|
C |--0--0----0-----0--0---0---|

2nd Guitar - Delay And Maybe Phaser
D |---------------------------|
A |--17--15--10---18--17------|
F |---------------------------|
C |---------------------------|
G |---------------------------|
C |---------------------------|

Chorus: Kinda have to slide when changing the chords

D |------------------------------------------------------------------|
A |------------------------------------------------------------------|
F |---7-------6--10--9---13--12------12---7-----6--10--9---13--12----|
C |---X-------X---X--X----X---X--------------------------------------|
G |---5-------4---8--7---11--10------10---5-----4---8--7---11--10----|
C |---0-------0------------------------------------------------------|

D |----------------------------------|
A |----------------------------------|
F |----------------------------------|
C |---SLIDE UP THEN DOWN-------------|
G |---SLIDE UP THEN DOWN-------------|
C |---SLIDE UP THEN DOWN-------------|

AFTER THE SLIDE 2ND GUITAR  PLAYS HIS INTRO

THE REST OF THE SONGS IS THE SAME, THE SONG ENDS WITH THE 2ND GUITAR INTRO.

PLEASE LET ME KNOW IF I DID A GOOD JOB BY EMAILING ME, AND IF YOU WANT 
ANOTHER SONG
EMAIL ME AND I WILL TRY TO EMAIL THE SONG BACK TO YOU. THANK YOU.
MIGUEL


Другие подборы этого исполнителя

Расскажи друзьям!




Привет, гитарист!

Пройди супер-курс по гитаре и порази всех своей игрой!

Забрать курс!
ВАМ ПОДАРКИ ОТ ПРОЕКТА
"ГИТАРНАЯ РЕВОЛЮЦИЯ"