Gitaristu.ru
Аккорды Табулатура Начинающим Мастер-класс Софт Видео
Новости Анонсы Гитары Гитаристы Статьи Аватарки Минусовки
Поиск



Популярные подборы




Настройка гитары






Главная > Аккорды > S > Static-x

Аккорды
Static-x
-
Destroyer bass (табулатура)

Не нашли аккорды к песне? Посмотрите на


Подбор прислал: gitaristu.ru
This song is awesome, and there's no bass tab for it yet, so here you go.

standard tuning
(eadg)

1st verse-don't play anything until guitar stops, then join when it kicks back in-play 
riff along with the guitar...
[-----------------------------------]
[-----------------------------------]
[-----------------------------------]repeat
[--00--0-00--0-0-0000---------------]


Chorus
[-----------------------------------]
[-----------------------------------]
[-----------------------------------]
[-0000000220000002233333333002200---]

[-----------------------------------]
[-----------------------------------]
[--------------------------3232-----]
[-0000000220000002233333333---------]

2nd verse
[-----------------------------------]
[-----------------------------------]
[-----------------------------------]repeat
[--00--0-00--0-0-0000---------------]

Chorus
[-----------------------------------]
[-----------------------------------]
[-----------------------------------]
[-0000000220000002233333333002200---]

[-----------------------------------]
[-----------------------------------]
[--------------------------3232-----]
[-0000000220000002233333333---------]

[-----------------------------------]
[-----------------------------------]
[-----------------------------------]
[-0000000220000002233333333002200---]

[-----------------------------------]
[-----------------------------------]
[-----------------------------------]
[-0000000220000002233333333---------]

immediately after that chorus there's a solo.  play these riffs...
[-----------------------------------]repeat 4x
[-----------------------------------]
[-----------------------------------]on last time only
[-03-03-03-03-5555------------------]play one 5

[-----------------------------------]repeat 4x
[-----------------------------------]
[-----------------------------------]on last time
[-33333------55555------------------]no 5's

[-----------------------------------]repeat 2x
[-----------------------------------]
[-----------------------------------]
[-00000-00-00-00000-----------------]

chorus
[-----------------------------------]
[-----------------------------------]
[-----------------------------------]
[-0000000220000002233333333002200---]

[-----------------------------------]
[-----------------------------------]
[--------------------------3232-----]
[-0000000220000002233333333---------]

final verse/outro
[-----------------------------------]
[-----------------------------------]
[-----------------------------------]repeat
[--00--0-00--0-0-0000---------------]

yeah that's pretty much it...this is only my second tab so please rate and comment.

Другие подборы этого исполнителя

Расскажи друзьям!




Привет, гитарист!

Пройди супер-курс по гитаре и порази всех своей игрой!

Забрать курс!
ВАМ ПОДАРКИ ОТ ПРОЕКТА
"ГИТАРНАЯ РЕВОЛЮЦИЯ"