Gitaristu.ru
Аккорды Табулатура Начинающим Мастер-класс Софт Видео
Новости Анонсы Гитары Гитаристы Статьи Аватарки Минусовки
Поиск



Популярные подборы




Настройка гитары






Главная > Аккорды > S > Static-x

Аккорды
Static-x
-
Im with stupid (табулатура)

Не нашли аккорды к песне? Посмотрите на


Подбор прислал: gitaristu.ru



Date: Sat, 03 May 2003 00:41:00 +0000
From: David Powell 
Subject: s/static-x/im_with_stupid.tab

Artist: Static-X
Album: Wisconsin Death Trip
Title: I'm With Stupid

Tabbed by David Powell 

[Key]
X-Mute
P-Palm Mute

[Riff One, Repeat four times]
E------------------------------------------------|
B------------------------------------------------|
G------------------------------------------------|
D-5--5--5-5-5--5--5--5-5-5--5--5--5-5-5--5--5--6-|
A-3--3--3-3-3--3--3--3-3-3--3--3--3-3-3--3--3--4-|
E------------------------------------------------|

[Second Riff, Repeat four times]
  P  P  P P P  P  P  P P P  P  P  P P P  P  P
E------------------------------------------------|
B------------------------------------------------|
G------------------------------------------------|
D-5--5--5-5-5--5--5--5-5-5--5--5--5-5-5--5--5--6-|
A-3--3--3-3-3--3--3--3-3-3--3--3--3-3-3--3--3--4-|
E------------------------------------------------|

[Third Riff, Repeat four times]
E---------------------------|
B---------------------------|
G---------------------------|
D-5-5X-5X5-5X-5X5-5X-5X5-5X-|
A-3-3X-3X3-3X-3X3-3X-3X3-3X-|
E---------------------------|

[Final Riff, Repeat four times]
  P  P  P P P  P  P  P P P  P  P  P P P  P  P
E------------------------------------------------|
B------------------------------------------------|
G------------------------------------------------|
D-6--6--6-6-6--6--6--6-6-6--6--6--6-6-6--6--6--7-|
A-4--4--4-4-4--4--4--4-4-4--4--4--4-4-4--4--4--5-|
E------------------------------------------------|

[Order of Riffs]
First
Second
Third
Final
First
Third
Final
First
Final
First
Third

Comments and Corrections Send To: 
Please Tag all E-Mails sent with (Static-XTabs)


Другие подборы этого исполнителя

Расскажи друзьям!




Привет, гитарист!

Пройди супер-курс по гитаре и порази всех своей игрой!

Забрать курс!
ВАМ ПОДАРКИ ОТ ПРОЕКТА
"ГИТАРНАЯ РЕВОЛЮЦИЯ"