Gitaristu.ru
Аккорды Табулатура Начинающим Мастер-класс Софт Видео
Новости Анонсы Гитары Гитаристы Статьи Аватарки Минусовки
Поиск



Популярные подборы




Настройка гитары






Главная > Аккорды > S > Static-x

Аккорды
Static-x
-
Kill Your Idols (табулатура)

Не нашли аккорды к песне? Посмотрите на


Подбор прислал: gitaristu.ru
================================================================
                  Kill Your Idols
                     Static-X
                    Shadow Zone
================================================================

               Tabbed by:  John Moores
                mooresjw@email.uc.edu
~~~~~~~~~~~~~~~~~~~~~~~~~~~~~~~~~~~~~~~~~~~~~~~~~~~~~~~~~~~~~~~~


    Let's first start out by saying that there were some 
    other attempts at this song, and they really weren't 
    that far off.  I mean this song isn't too hard, since 
    I was picking it up without even looking for a tab.

    Anyways, this song is pretty basic for playing, but 
    the structure and patterns is not the normal structure 
    of a song, so it took me a bit to make sure the timings
    were right. With that said, here it is:



Tuning: Drop C (CGCFAD)

* = Palm Mute
@ = Pinched harmonic
x = muted




Intro

0:12


|-------------------------------------------------------|
|-------------------------------------------------------|
|-------------------------------------------------------|
|-------------------------------------------------------|   x4
|---------------------------------------------1---------|
|----00-0-0--0--00-0-0--0--00-0-0--0--00-0-0--1---------|
     ** * *  *  ** * *  *  ** * *  *  ** * *


0:27


|-------------------------------------------------------|
|-------------------------------------------------------|
|-------------------------------------------------------|
|----88888888--666666--999999999------------------------|
|----xxxxxxxx--xxxxxx--xxxxxxxxx------------------------|
|----88888888--666666--999999999------------------------|


|-------------------------------------------------------|
|-------------------------------------------------------|
|-------------------------------------------------------|
|-------------------------------------------------------|
|---------------------------------------------1---------|
|----00-0-0--0--00-0-0--0--00-0-0--0--00-0-0--1---------|
     ** * *  *  ** * *  *  ** * *  *  ** * *


|-------------------------------------------------------|
|-------------------------------------------------------|
|-------------------------------------------------------|
|----88888888--999999--666666666------------------------|
|----xxxxxxxx--xxxxxx--xxxxxxxxx------------------------|
|----88888888--999999--666666666------------------------|


|-------------------------------------------------------|
|-------------------------------------------------------|
|-------------------------------------------------------|
|-------------------------------------------------------|
|---------------------------------------------1---------|
|----00-0-0--0--00-0-0--0--00-0-0--0--00-0-0--1---------|
     ** * *  *  ** * *  *  ** * *  *  ** * *


Verse Lead-in
0:42

Guitar 1

|-------------------------------------------------------|
|-------------------------------------------------------|
|-------------------------------------------------------|
|-------------------------------------------------------|  x4
|-----------------------1---------------------1---------|
|----00-0-0--0--00-0-0--1--00-0-0--0--00-0-0--1---------|
     ** * *  *  ** * *     ** * *  *  ** * *

Guitar 2 (timing matches up with the first guitar part)

|-------------------------------------------------------|
|-------------------------------------------------------|
|--8-77777777777777777--8-777777777777777777------------|
|--x-xxxxxxxxxxxxxxxxx--x-xxxxxxxxxxxxxxxxxx------------|  x4
|--6-55555555555555555--6-555555555555555555------------|
|-------------------------------------------------------|




Verse 1

0:56

                                                           
|-------------------------------------------------------|   
|-------------------------------------------------------|   
|-------------------------------------------------------|   
|-------------------------------------------------------|   x4
|-----------------------1---------------------1---------|   
|----00-0-0--0--00-0-0--1--00-0-0--0--00-0-0--1---------|   
     ** * *  *  ** * *     ** * *  *  ** * *                

1:11
                                                        _
|----------------------------------------------------|   | 
|----------------------------------------------------|   |
|-------9/1010101010--6666----44444/555--------------|   |
|-------x/x-x-x-x-x---xxxx----xxxxx/xxx--------------|   |
|-------7/8-8-8-8-8---4444----22222/333--------------|   |
|----------------------------------------------------|   |
                                                         |
                                                         |}} x4
|----------------------------------------------------|   |
|----------------------------------------------------|   |
|----------------------------------------------------|   |
|----------------------------------------------------|   |
|----------------------------------------------------|   |
|----00-0-0--0--00-0-0-------------------------------|   |
     ** * *  *  ** * *                                  _|


Chorus

1:26

|-------------------------------------------------------|
|-------------------------------------------------------|
|-------------------------------------------------------|
|---------------------1----------------------9----------|
|----888-8-8---66-6---1------888-8-8---66-6--9----------|
|----888-8-8---66-6---1------888-8-8---66-6--9----------|



|-------------------------------------------------------|
|-------------------------------------------------------|
|-------------------------------------------------------|
|---------------------1----------------------6----------|
|----888-8-8---66-6---1------888-8-8---99-9--6----------|
|----888-8-8---66-6---1------888-8-8---99-9--6----------|



Verse 2

1:40

                                                           
Guitar 1

|-------------------------------------------------------|
|-------------------------------------------------------|
|-------------------------------------------------------|
|-------------------------------------------------------|  x8
|-----------------------1---------------------1---------|
|----00-0-0--0--00-0-0--1--00-0-0--0--00-0-0--1---------|
     ** * *  *  ** * *     ** * *  *  ** * *


1:55

Guitar 2 (timing matches up with the first guitar part)

|-------------------------------------------------------|
|-------------------------------------------------------|
|--8-77777777777777777--8-777777777777777777------------|
|--x-xxxxxxxxxxxxxxxxx--x-xxxxxxxxxxxxxxxxxx------------|  x4
|--6-55555555555555555--6-555555555555555555------------|
|-------------------------------------------------------|



Chorus

2:10

|-------------------------------------------------------|
|-------------------------------------------------------|
|-------------------------------------------------------|
|---------------------1----------------------9----------|
|----888-8-8---66-6---1------888-8-8---66-6--9----------|
|----888-8-8---66-6---1------888-8-8---66-6--9----------|



|-------------------------------------------------------|
|-------------------------------------------------------|
|-------------------------------------------------------|
|---------------------1---------------------------------|
|----888-8-8---66-6---1------33-3----5--6---8-9---------|
|----888-8-8---66-6---1------33-3----5--6---8-9---------|


2:24

|-------------------------------------------------------|
|-------------------------------------------------------|
|-------------------------------------------------------|
|-------------------------------------------------------|  x8
|-------------------------------------------------------|
|----00-0-0--0--00-0-0--0--00-0-0--0--00-0-0--0---------|
     ** * *  *  ** * *  *  ** * *  *  ** * *  *


2:54

Guitar 1

|-------------------------------------------------------|
|-------------------------------------------------------|
|-------------------------------------------------------|
|-------------------------------------------------------|  x4
|-------------------------------------------------------|
|----00-0-0--0--00-0-0--0--00-0-0--0--00-0-0--0---------|
     ** * *  *  ** * *  *  ** * *  *  ** * *  *

Guitar 2
                                                          
|-------------------------------------------------------|  
|-------------------------------------------------------| 
|-------------------------------------------------------|  
|----88888888--666666--999999999------------------------|  
|----xxxxxxxx--xxxxxx--xxxxxxxxx------------------------|  
|----88888888--666666--999999999------------------------|  
                                                           
|-------------------------------------------------------|  
|-------------------------------------------------------|  
|-------------------------------------------------------|  
|----88888888--999999--666666666------------------------|  
|----xxxxxxxx--xxxxxx--xxxxxxxxx------------------------|  
|----88888888--999999--666666666------------------------|  
                                                          
|-------------------------------------------------------|  
|-------------------------------------------------------| 
|-------------------------------------------------------|  
|----88888888--666666--999999999------------------------|  x2
|----xxxxxxxx--xxxxxx--xxxxxxxxx------------------------|  
|----88888888--666666--999999999------------------------|  



Verse 3

3:08

Guitar 1

|-------------------------------------------------------|
|-------------------------------------------------------|
|-------------------------------------------------------|
|-------------------------------------------------------|  x2
|-----------------------1---------------------1---------|
|----00-0-0--0--00-0-0--1--00-0-0--0--00-0-0--1---------|
     ** * *  *  ** * *     ** * *  *  ** * *

Guitar 2 (timing matches up with the first guitar part)

|-------------------------------------------------------|
|-------------------------------------------------------|
|--8-77777777777777777--8-777777777777777777------------|
|--x-xxxxxxxxxxxxxxxxx--x-xxxxxxxxxxxxxxxxxx------------|  x2
|--6-55555555555555555--6-555555555555555555------------|
|-------------------------------------------------------|


Chorus

3:16

|-------------------------------------------------------|
|-------------------------------------------------------|
|-------------------------------------------------------|
|---------------------1----------------------9----------|
|----888-8-8---66-6---1------888-8-8---66-6--9----------|
|----888-8-8---66-6---1------888-8-8---66-6--9----------|



|-------------------------------------------------------|
|-------------------------------------------------------|
|-------------------------------------------------------|
|---------------------1---------------------------------|
|----888-8-8---66-6---1------33-3----5--6---8-9---------|
|----888-8-8---66-6---1------33-3----5--6---8-9---------|


|-------------------------------------------------------|
|-------------------------------------------------------|
|-------------------------------------------------------|
|-------------------------------------------------------|
|-----------------------1---------------------1---------|
|----00-0-0--0--00-0-0--1--00-0-0--0--00-0-0--1---------|
     ** * *  *  ** * *     ** * *  *  ** * *


|-------------------------------------------------------|
|-------------------------------------------------------|
|-------------------------------------------------------|
|---------------------1----------------------9----------|
|----888-8-8---66-6---1------888-8-8---66-6--9----------|
|----888-8-8---66-6---1------888-8-8---66-6--9----------|



|-------------------------------------------------------|
|-------------------------------------------------------|
|-------------------------------------------------------|
|---------------------1---------------------------------|
|----888-8-8---66-6---1------33-3----5--6---8-9---------|
|----888-8-8---66-6---1------33-3----5--6---8-9---------|


3:49

|-------------------------------------------------------|
|-------------------------------------------------------|
|-------------------------------------------------------|
|-------------------------------------------------------|
|-----33-3----5--6---8-9--------------------------------|
|-----33-3----5--6---8-9--------------------------------|


|-------------------------------------------------------|
|-------------------------------------------------------|
|-------------------------------------------------------|
|-------------------------------------------------------|
|-------------------------------------------------------|
|----00-0-0--0--00-0-0--0--00-0-0--0--00-0-0--0---------|
     ** * *  *  ** * *  *  ** * *  *  ** * *







Другие подборы этого исполнителя

Расскажи друзьям!




Привет, гитарист!

Пройди супер-курс по гитаре и порази всех своей игрой!

Забрать курс!
ВАМ ПОДАРКИ ОТ ПРОЕКТА
"ГИТАРНАЯ РЕВОЛЮЦИЯ"