Gitaristu.ru
Аккорды Табулатура Начинающим Мастер-класс Софт Видео
Новости Анонсы Гитары Гитаристы Статьи Аватарки Минусовки
Поиск



Популярные подборы




Настройка гитары






Главная > Аккорды > S > Static-x

Аккорды
Static-x
-
Otsegolectric (табулатура)

Не нашли аккорды к песне? Посмотрите на


Подбор прислал: gitaristu.ru



Date: Wed, 4 Feb 2004 22:23:18 -0600
From: Brent Moresco 
Subject: s/static-x/otsegolectric.tab

Artist: Static-X
Album: Shadow Zone
Song: Otsegolectic
Transcribed By: Brent Moresco
Web: http://www.riskdeth.zapto.org
Email: kurovirus@yahoo.com
*As always, this is only my interpretation of the artist's work,
and not to be confused with copywritten transcriptions of any kind.
 
 
TUNING: Drop A# / C Standard.  (6:A#  5:F  4:A#  3:D#  2:G  1:C)
C ||-------------------------------------------------------------|
G ||:------------------------------------------------------------|
D#||:------------------------------------------------------------|
A#||-------------------------------------------------------------|
F ||--0---0-0-0-0-0-----0-0-0-0-0-----0-0-0-0-0-----0-0-0-0-0-0--|
A#||--0---0-0-0-0-0-8---0-0-0-0-0-5---0-0-0-0-0-7---0-0-0-0-0-0--|
 

C |-------------------------------------------------------------||
G |------------------------------------------------------------:||
D#|------------------------------------------------------------:||
A#|-------------------------------------------------------------||
F |--0---0-0-0-0-0-----0-0-0-0-0-----0-0-0-0-0-----0-0-0-0-0-0--||
A#|--0---0-0-0-0-0-8---0-0-0-0-0-10--0-0-0-0-0-7---0-0-0-0-0-0--||
 

C |--------------------------------------------------------------|
G |--------------------------------------------------------------|
D#|--------------------------------------------------------------|
A#|--------------------------------------------------------------|
F |--2-2-2-2-------------------------2-2-2-2---------------------|
A#|--2-2-2-2-------------------------2-2-2-2---------------------|
 

C |--------------------------------------------------------------|
G |--------------------------------------------------------------|
D#|--------------------------------------------------------------|
A#|--------------------------------------------------------------|
F |--2-2-2-2-------------------------2-2-2-2---------------------|
A#|--2-2-2-2-------------------------2-2-2-2---------------------|
  |                                                              |
C |--------------------------------------------------------------|
G |--12~---------12~--13~--------13~--15~---------15~--13~----13~|
D#|---------9~-------------10~----------------12~----------10~---|
A#|--------------------------------------------------------------|
F |--------------------------------------------------------------|
A#|--------------------------------------------------------------|
 

C |---------------------------------------------------------------------|
G |---------------------------------------------------------------------|
D#|---------------------------------------------------------------------|
A#|---------------------------------------------------------------------|
F |--2-2-2-2---------2-2-2-2---------2-2-2-2----------2-2-2-2-----5-----|
A#|--2-2-2-2---------2-2-2-2---------2-2-2-2----------2-2-2-2-----5-----|
  |                                                                     |
C |---------------------------------------------------------------------|
G |--12(6)------12(4)-13(6)-------13(4)-15(6)-----15(4)-13(6)----13(4)--|
D#|--------9(6)-------------10(6)------------12(6)-----------10(6)------|
A#|---------------------------------------------------------------------|
F |---------------------------------------------------------------------|
A#|---------------------------------------------------------------------|
Straight 16th notes above.
 

C |------------------------------------------------------|
G |:----------------------------------------------------:|
D#|:------------10--------------------------------------:|
A#|----------8-------------------------------------------|
F |--5-----------------0-0-0-0----0---0-0-0-0-0----0---0-|
A#|--5-----------------0-0-0-0----0---0-0-0-0-0----0---0-|
 
C |---------------------------------------------------------------|
G |:-------------------------------------------------------------:|
D#|:-------------------------------------------------------------:|
A#|---------------------------------------------------------------|
F |--0-0-0-0----0---0-0-0-0-0----0---0-0-0-0-0----0---0-0-0-0-0---|
A#|--0-0-0-0----0---0-0-0-0-0----0---0-0-0-0-0----0---0-0-0-0-0---|
 
C |-------------------------------------------------------------------|
G |-------------------------------------------------------------------|
D#|-------------------------------------------------------------------|
A#|-------------------------------------------------------------------|
F |--2-2-2-2-------2-2-2-2--------2-2-2-2--------2-2-2-2------5-------|
A#|--2-2-2-2-------2-2-2-2--------2-2-2-2--------2-2-2-2------5-------|
  |                                                                   |
C |-------------------------------------------------------------------|
G |-------------------------------------------------------------------|
D#|-------------------------------------------------------------------|
A#|-------------------------------------------------------------------|
F |-7(6)-8(6)-7(4)-8(6)-10(6)-8(4)-10(6)-12(6)-13(4)-12(6)-10(6)-8(4)-|
A#|-------------------------------------------------------------------|
Straight 16th Notes Above.
 
C |-------------------------------------------------------------------|
G |-------------------------------------------------------------------|
D#|-------------------------------------------------------------------|
A#|-------------------------------------------------------------------|
F |--2-2-2-2-------2-2-2-2--------2-2-2-2--------2-2-2-2------5-------|
A#|--2-2-2-2-------2-2-2-2--------2-2-2-2--------2-2-2-2------5-------|
  |                                                                   |
C |-------------------------------------------------------------------|
G |-------------------------------------------------------------------|
D#|-------------------------------------------------------------------|
A#|-------------------------------------------------------------------|
F |-7(6)-8(6)-7(4)-8(6)-10(6)-8(4)-10(6)-12(6)-13(4)-12(6)-10(6)-8~~~-|
A#|-------------------------------------------------------------------|
Straight 16th Notes Above.
 
 
 
Symbols explained:
1. (6) means six times. So play whatever note that preceeds this,
however many times it says in the quotations.
 
2. Straight 16th notes means:
Rhythm Slashes in 4/4 Time
/-/-/-/   /-/-/-/   /-/-/-/   /-/-/-/
1 e amp; a   2 e amp; a   3 e amp; a   4 e amp; a
 
3. Bars that repeat:
||        ||
||:      :||
||:      :||
||        ||
||        ||
 
4. Vibrato is defined by a ~, that will trail immediately after the note
which it pertains to.


Другие подборы этого исполнителя

Расскажи друзьям!




Привет, гитарист!

Пройди супер-курс по гитаре и порази всех своей игрой!

Забрать курс!
ВАМ ПОДАРКИ ОТ ПРОЕКТА
"ГИТАРНАЯ РЕВОЛЮЦИЯ"