Gitaristu.ru
Аккорды Табулатура Начинающим Мастер-класс Софт Видео
Новости Анонсы Гитары Гитаристы Статьи Аватарки Минусовки
Поиск



Популярные подборы




Настройка гитары






Главная > Аккорды > S > Static-x

Аккорды
Static-x
-
Skinnyman (табулатура)

Не нашли аккорды к песне? Посмотрите на


Подбор прислал: gitaristu.ru
Artist : Static-X.
Song   : Skinnyman.
Tuning : DADGBE.
By     : Gopesh.
mail   : coolguygopesh@yahoo.co.in


1|-------------|
2|-------------|
3|-------------|
4|----8-8-8----|
5|----8-8-8----|
6|----8-8-8----|


1|-------------------------|
2|-------------------------|
3|-------------------------|
4|----11-10-11-13-11-10----|
5|----11-10-11-13-11-10----|
6|----11-10-11-13-11-10----|

Plays the same thing in complete song..
Suggestions are highly welcomed..
mail me.
Thanks for your support.

Другие подборы этого исполнителя

Расскажи друзьям!




Привет, гитарист!

Пройди супер-курс по гитаре и порази всех своей игрой!

Забрать курс!
ВАМ ПОДАРКИ ОТ ПРОЕКТА
"ГИТАРНАЯ РЕВОЛЮЦИЯ"