Gitaristu.ru
Аккорды Табулатура Начинающим Мастер-класс Софт Видео
Новости Анонсы Гитары Гитаристы Статьи Аватарки Минусовки
Поиск



Популярные подборы




Настройка гитары






Главная > Аккорды > S > Static-x

Аккорды
Static-x
-
Stingwray (табулатура)

Не нашли аккорды к песне? Посмотрите на


Подбор прислал: gitaristu.ru
-------------------------------------------------------------------------------
                             Stingwray - Static-X
-------------------------------------------------------------------------------
Tabbed by:BushMasterFlex
Email:masculine_but_feminine@hotmail.com

IMPORTANT NOTE!! I dont know their proper tuneing but this is how it would be if they 
it in drop C.
Also for the heavy verse riff, i added 1's just for variety. Im pretty sure its all 0's though.

Tuning:Drop C

e|---------------------------------------------------------------------------|
B|---------------------------------------------------------------------------|
G|---------------------------------------------------------------------------|
D|---------------------------------------------------------------------------|
A|33331111000000000000111103333----------------------------------------------|repeated alot
E|---------------------------------------------------------------------------|

e|---------------------------------------------------------------------------|
B|---------------------------------------------------------------------------|
G|---------------------------------------------------------------------------|
D|---------------------------------------------------------------------------|
A|1-0-0-0-0-0-0-1-0-0-0-0-0-0------------------------------------------------|
E|1-0-0-0-0-0-0-1-0-0-0-0-0-0------------------------------------------------|repeated alot
    x x   x x x   x x   x x x
e|---------------------------------------------------------------------------|
B|---------------------------------------------------------------------------|
G|---------------------------------------------------------------------------|
D|-5-5-5-5-5-5-5-5-5-5-5-5-5-5-5-5-------------------------------------------|
A|-3-3-3-3-3-3-3-3-3-3-3-3-3-3-3-3-------------------------------------------|
E|---------------------------------------------------------------------------|
The fill in the verse

e|---------------------------------------------------------------------------|
B|---------------------------------------------------------------------------|
G|---------------------------------------------------------------------------|
D|-7-7-7-7-8-----7-7-7-7-8-----7-7-7-7-8-------5--5--5--5--------------------|
A|-5-5-5-5-6-0---5-5-5-5-6-0---5-5-5-5-6-0-----3--3--3--3--------------------|
E|-----------0-------------0-------------0-----------------------------------|


The chorus could also be this...
e|---------------------------------------------------------------------------|
B|---------------------------------------------------------------------------|
G|-7-7-7-7-8-----7-7-7-7-8-----7-7-7-7-8-------------------------------------|
D|-6-6-6-6-7-----6-6-6-6-7-----6-6-6-6-7-------5--5--5--5--------------------|
A|-5-5-5-5-6-0---5-5-5-5-6-0---5-5-5-5-6-0-----3--3--3--3--------------------|
E|-----------0-------------0-------------0-----------------------------------|
Chorus ( Repeat as needed through the song)

Theres not much to this song, but I find it addictive to play.
Im pretty certin about everything but the chorus so let me know if you find any mistakes.
Please leave a comment or correction and RATE! ENJOY!

| /  slide up
| \  slide down
| h  hammer-on
| p  pull-off
| ~  vibrato
| +  harmonic
| x  Mute note
===============================================================================

Другие подборы этого исполнителя

Расскажи друзьям!




Привет, гитарист!

Пройди супер-курс по гитаре и порази всех своей игрой!

Забрать курс!
ВАМ ПОДАРКИ ОТ ПРОЕКТА
"ГИТАРНАЯ РЕВОЛЮЦИЯ"