Gitaristu.ru
Аккорды Табулатура Начинающим Мастер-класс Софт Видео
Новости Анонсы Гитары Гитаристы Статьи Аватарки Минусовки
Поиск



Популярные подборы




Настройка гитары






Главная > Аккорды > S > Static-x

Аккорды
Static-x
-
Transmission bass (табулатура)

Не нашли аккорды к песне? Посмотрите на


Подбор прислал: gitaristu.ru
Static-X - Transmission



:08
G|----------------------||
D|----------------------||
A|----------------------|| x2
E|55----7~-55-----------||

:19
G|----------------------||
D|----------------------||
A|----------------------|| x1
E|9~-55----7~-55--------||

:24
G|----------------------||
D|----------------------||
A|----------------------|| x1
E|55----7~-55-----------||

:31
G|-----||
D|-----||
A|-----|| x1
E|0~~~~||

:36
G|----------------------||
D|----------------------||
A|----------------------|| x2
E|55----7~-55-----------||

:47
G|----------------------||
D|----------------------||
A|----------------------|| x1
E|9~-55----7~-55--------||

:53
G|----------------------||
D|----------------------||
A|----------------------|| x1
E|55----7~-55-----------||

:59
END

Другие подборы этого исполнителя

Расскажи друзьям!




Привет, гитарист!

Пройди супер-курс по гитаре и порази всех своей игрой!

Забрать курс!
ВАМ ПОДАРКИ ОТ ПРОЕКТА
"ГИТАРНАЯ РЕВОЛЮЦИЯ"