Gitaristu.ru
Аккорды Табулатура Начинающим Мастер-класс Софт Видео
Новости Анонсы Гитары Гитаристы Статьи Аватарки Минусовки
Поиск



Популярные подборы




Настройка гитары






Главная > Аккорды > S > Static X

Аккорды
Static X
-
Get to gone (бас)

Не нашли аккорды к песне? Посмотрите на


Подбор прислал: gitaristu.ru


Summited By kornster x. these are 100% Right 

Intro Part I (The fast part on guitar) (x2)
G|---------------------------------------------------------------|
D|---------------------------------------------------------------|
A|---------------------------------------------------------------|
C|--0-----3-----2-----1-----6--5---0-----3-----2-----1-----3--2--|

Intro Part II (x4) (Get to the gone, Under the gun...)
G|-------------------------|
D|-------------------------|
A|-------------------------|
C|-0-0-6-0-0-6-0-0-6-0-0-6-|

Verse Part I (x4) (Pause after each time played)
G|--------|
D|--------|
A|--------|
C|-0-0-6-0|

Verse Part II (x4)
G|-------------------------|
D|-------------------------|
A|-------------------------|
C|-0-0-6-0-0-6-0-0-6-0-0-6-|

Verse Part III (x4)
G|--------|
D|--------|
A|--------|
C|-0-0-6-0|

Pre Chorus (The fast part on guitar) (x2)
G|---------------------------------------------------------------|
D|---------------------------------------------------------------|
A|---------------------------------------------------------------|
C|--0-----3-----2-----1-----6--5---0-----3-----2-----1-----3--2--|

Chorus (x4) (Get To The Gone, Under The Gun...)
G|-------------------------|
D|-------------------------|
A|-------------------------|
C|-0-0-6-0-0-6-0-0-6-0-0-6-|

Verse (x4)
G|--------|
D|--------|
A|--------|
C|-0-0-6-0|

Bridge Part I (The fast part on guitar) (x2)
G|---------------------------------------------------------------|
D|---------------------------------------------------------------|
A|---------------------------------------------------------------|
C|--0-----3-----2-----1-----6--5---0-----3-----2-----1-----3--2--|

Bridge Part II (x1) (Get to it...) (it something around this many times you have to play 6 fret)
G|---------------------------------------------------------|
D|---------------------------------------------------------|
A|---------------------------------------------------------|
C|-6-6-6-6-6-6-6-6-6-6-6-6-6-6-6-6-6-6-6-6-6-6-6-6-6-6-6-6-|

Bridge Part III (x2)
G|-------------------------|
D|-------------------------|
A|-------------------------|
C|-0-0-6-0-0-6-0-0-6-0-0-6-|

Bridge Part IV (x1)
G|---------------------------------------------------------|
D|---------------------------------------------------------|
A|---------------------------------------------------------|
C|-6-6-6-6-6-6-6-6-6-6-6-6-6-6-6-6-6-6-6-6-6-6-6-6-6-6-6-6-|

Rest whilst keyboards do their part

Outro (x8)
G|-------------------------|
D|-------------------------|
A|-------------------------|
C|-0-0-6-0-0-6-0-0-6-0-0-6-|

Расскажи друзьям!




Привет, гитарист!

Пройди супер-курс по гитаре и порази всех своей игрой!

Забрать курс!
ВАМ ПОДАРКИ ОТ ПРОЕКТА
"ГИТАРНАЯ РЕВОЛЮЦИЯ"