Gitaristu.ru
Аккорды Табулатура Начинающим Мастер-класс Софт Видео
Новости Анонсы Гитары Гитаристы Статьи Аватарки Минусовки
Поиск



Популярные подборы




Настройка гитары






Главная > Аккорды > S > Steel Pulse

Аккорды
Steel Pulse
-
Chant A Psalm bass (табулатура)

Не нашли аккорды к песне? Посмотрите на


Подбор прислал: gitaristu.ru
Chant a psalm 
Steel Pulse
True Democracy
Bass tab
Tabbed By Zubi Onwuka

try to play all muted with an envelope filter or something to get that reggae sound

Intro
E|-4---------------7--6--4--------|
A|----2---4--6--------------------|
D|--------------------------------|
G|--------------------------------|

E|-4---------------7--6-----------|
A|----2---4-6-4-6-----------------|
D|--------------------------------|
G|--------------------------------|

Part A
E|-4---7---------6-6-6---6-6------|
A|--------7--7--------------------|
D|-------------6------------------|
G|--------------------------------|

Part B
E|-----------------4--4-6-7-------|
A|-6-6-6--6-6-6-------------------|
D|--------------------------------|
G|--------------------------------|

Part C
E|-2-2-2-2---------4--4-6-7------------------------4--4-6-7-------|
A|----------4-4-4-------------------4-4-4--6-6-6------------------|
D|----------------------------------------------------------------|
G|----------------------------------------------------------------|

Part D
E|-2-2-2-2---------4--4-6-7---------------------------7---2-2-2---|
A|----------4-4-4-------------------4-4-4--6-6-6------------------|
D|-------------------------------------------------9-9------------|
G|----------------------------------------------------------------|

Part E
E|----------------------------------------------------------------|
A|-6--6-------6--6-------6---------6--6-------6--6----------------|
D|------8-8-6------8-8-6----------------8-8-6------8-8-6----------|
G|----------------------------------------------------------------|

Part F
E|-2--2------------------------------------------4--7-------------|
A|------4-2-4-----2----------------4-2-4--6-4-6-------6-----------|
D|--------------4---0---------------------------------------------|
G|----------------------------------------------------------------|

Part G
E|----------------|
A|--------6-------|
D|--9--8-6--------|
G|----------------|

Part H
E|--------------------------------|
A|-6-6-6--6-6-6--6-6-6--6-6-6-----|
D|--------------------------------|
G|--------------------------------|

Song Construction:
Intro 1x
A 16x
B 1x
C 1x
D 1x
E 1x
F 2x
C 2x
G 1x
A 12x
H 1x
E 2x 
C 2x (play very light and soft)
C 2x

Другие подборы этого исполнителя

Расскажи друзьям!




Привет, гитарист!

Пройди супер-курс по гитаре и порази всех своей игрой!

Забрать курс!
ВАМ ПОДАРКИ ОТ ПРОЕКТА
"ГИТАРНАЯ РЕВОЛЮЦИЯ"