Gitaristu.ru
Аккорды Табулатура Начинающим Мастер-класс Софт Видео
Новости Анонсы Гитары Гитаристы Статьи Аватарки Минусовки
Поиск



Популярные подборы




Настройка гитары






Главная > Аккорды > S > Steeleye Span

Аккорды
Steeleye Span
-
Alison gross intro (табулатура)

Не нашли аккорды к песне? Посмотрите на


Подбор прислал: gitaristu.ru


This is just the intro. If there are any errors or if you find a better-sounding way to play it, please email me at nschneid@unm.edu

------------------|------------------|
------------1-1-0-|------------1-3-0-|
2-4-2-0-2-4-------|2-4-2-0-2-4-------|
------------------|------------------|
------------------|------------------|
------------------|------------------|

------------------------|
1-0-1-3-1-3-5-3-1-0-1-3-|
------------------------|
------------------------|
------------------------|
------------------------|

-----------------|
5-3-1-0----------|
--------7-5-4-0-2|
-----------------|
-----------------|
-----------------|

Другие подборы этого исполнителя

Расскажи друзьям!




Привет, гитарист!

Пройди супер-курс по гитаре и порази всех своей игрой!

Забрать курс!
ВАМ ПОДАРКИ ОТ ПРОЕКТА
"ГИТАРНАЯ РЕВОЛЮЦИЯ"