Gitaristu.ru
Аккорды Табулатура Начинающим Мастер-класс Софт Видео
Новости Анонсы Гитары Гитаристы Статьи Аватарки Минусовки
Поиск



Популярные подборы




Настройка гитары






Главная > Аккорды > S > Stefan Rhoads

Аккорды
Stefan Rhoads
-
Forever (табулатура)

Не нашли аккорды к песне? Посмотрите на


Подбор прислал: gitaristu.ru



Date: Sun, 13 Apr 2003 23:18:10 -0600
From: Stefan Phantom 
Subject: r/rhoads_stefan/forever.tab

forever verison 2
by stefan rhoads tabbed by him also

Intro.
  (A)                 (B)                 (C)
e |---0-----0-----|   |---0-----0-----|   |---0-----0-----|
B |--0--0--0--0--0|x2 |--0--0--0--0--0|x2 |--0--0--0--0--0|x2
G |-4-----4-----4-|   |-0-----0-----0-|   |-2-----2-----2-|

  play (B) again

  (D)                 (E)
e |---0-----0-----|   |---0-----0-----|
B |--0--0--0--0--0|   |--0--0--0--0--0|
G |---------------|x2 |---------------|x2
D |-4-----4-----4-|   |-2-----2-----2-|

  play (C), (B), (D) amp; (E) again

  (F)
e |----0-----0-----|
B |---0--0--0--0--0|
G |----------------|x2
D |--0-----0-----0-|

at the end of (F) add a
D |--2--|hold this note for about four counts

one


e |----0-----0---2---2---3---3---2---2---0---0---2---2---3---3---2---2-|
B |---0--0-----0---0---0---0---0---0---0---0---0---0---0---0---0---0---|
G |--------------------------------------------------------------------|
D |--2-----2-----0---0-------------------2---2---0---0-----------------|
A |----------------------3---3---2---2-------------------3---3---2---2-|
E |--------------------------------------------------------------------|

two

e |------------------------------------------------------------------|
B |--0---0---2---2---3---3---2---2---0---0---2---2---3---3---2---2---|
G |----0---0---0---0---0---0---0---0---0---0---0---0---0---0---0---0-|
D |------------------------------------------------------------------|
A |--2---2---0---0-------------------2---2---0---0-------------------|
E |------------------3---3---2---2-------------------3---3---2---2---|

then you go back to one and speed it up to insted of four/four time 2/3 time

I.E.

e|--0-0-0-0--2-2-2-2--3-3-3-3---2-2-2-2--------------------------|
B|---0-0-0-0--0-0-0-0--0-0-0-0---0-0-0-0-------------------------|
G|---------------------------------------------------------------|
D|--2-2-2-2--0-0-0-0---------------------------------------------|
A|--------------------3-3-3-3---2-2-2-2--------------------------|
E|---------------------------------------------------------------|
do that twice and the do the same thing to two
when you play it you should be able to pick out a count of (for me its)
one, two, three, and, four, and.



sorry its not done ive only been play guitar for about a year now
as for the ending im still writting that along with some words
any suggestions email me at
mdonebellsouth@hotmail.com


Stefan Rhoads


Расскажи друзьям!




Привет, гитарист!

Пройди супер-курс по гитаре и порази всех своей игрой!

Забрать курс!
ВАМ ПОДАРКИ ОТ ПРОЕКТА
"ГИТАРНАЯ РЕВОЛЮЦИЯ"