Gitaristu.ru
Аккорды Табулатура Начинающим Мастер-класс Софт Видео
Новости Анонсы Гитары Гитаристы Статьи Аватарки Минусовки
Поиск



Популярные подборы




Настройка гитары






Главная > Аккорды > S > Stellar Road

Аккорды
Stellar Road
-
Breathe (табулатура)

Не нашли аккорды к песне? Посмотрите на


Подбор прислал: gitaristu.ru
Standard Tuning

Guitar 1 - Rhythm
Guitar 2&3 - Lead

INTRO

Guitar 1
        I                   II
e------------------|--------------------|
b---10--10--10--10-|--10--10--10--10----|
g----9---9---9---9-|---9---9---9---9----|  x2
d----7---7---7---7-|---7---7---7---7----|
a--0---9---7---7---|-0-------9---7------|
E------------------|-----9--------------|
                ^               ^
Guitar 2        |               |
                |               |
e-------------------------------------------------|
b----9-10-12-10---10------------------------------|
g---------------9--------------6h7h6--------------|
d------------------------------------9-7----------|
a----------------------------------------9-7-9----|
E-------------------------------------------------|

Guitar 2 (continue after 1x intro)

e-------------------------------------|
b-------------------------------------|
g---------------6-7-6---6-7/9--6------| x2
d--7-----7-7h9--------9----------9-7--|
a-----7h9-----------------------------|
E-------------------------------------|

Guitar 3 (after 1x intro)

e--9----10----12----10-----------|
b---10---10----10----10----------|
g-----9----9-----9-----9---------| x4
d--------------------------------|
a--------------------------------|
E--------------------------------|

VERSE 1

Guitar 1

I I II II (see intro)

Guitar 3

e---0-------------------|
b---5---------55--------|
g---6---or------6-------|
d---7-------------------|
a-----------------------|
E-----------------------|

INTRO x1

VERSE 2

CHORUS

Guitar 1

e---0---------2----|
b---2----5----3----|
g---2----4----2----| x4
d---2----2----0----|
a---0----x---------|
E--------4---------|

Guitar 3

after x1            after x2        middle x3

e----------------------5/7------------------------------|
b--10-9-7--------------5/7------------------------------|
g---------9-7/6-----------------6-7-9-7-6-6h7h6---------|
d---------------7-------------------------------9-7-----|
a-------------------------------------------------------|
E-------------------------------------------------------|

INTRO

VERSE 3

CHORUS

OUTRO

Guitar 1

e--2---2---0---0---|
b--2---3---2---0---|
g--2---2---2---1---| x4 end with A chord
d--4---0---2---2---|
a--4-------0---2---|
E--2-----------0---|

Guitar 2

e------------------------------------------------|
b----------------------10--10-9-7-9-7/6-6h7h6----|
g-----------7--6h7h6-7------------9-7/6-6h7h6----|
d-------7-9-----------------------------------7--|
a---7/9------------------------------------------|
E------------------------------------------------|

4x

e--------------------------------------------------------0-----|
b--------------------------------------------------------0-----|
g-----------7/9-999-7-6-6h7777-6-7-7/9999-7-6-6h7777-6---6-----|
d-------7-9--------------------------------------------9-7-----|
a---7/9--------------------------------------------------0-----|
E--------------------------------------------------------------|

somethin like that

by Mr Colander
cmoss@bradley.edu
Расскажи друзьям!




Привет, гитарист!

Пройди супер-курс по гитаре и порази всех своей игрой!

Забрать курс!
ВАМ ПОДАРКИ ОТ ПРОЕКТА
"ГИТАРНАЯ РЕВОЛЮЦИЯ"