Gitaristu.ru
Аккорды Табулатура Начинающим Мастер-класс Софт Видео
Новости Анонсы Гитары Гитаристы Статьи Аватарки Минусовки
Поиск



Популярные подборы




Настройка гитары






Главная > Аккорды > S > Stellar Road

Аккорды
Stellar Road
-
Fade Away (табулатура)

Не нашли аккорды к песне? Посмотрите на


Подбор прислал: gitaristu.ru
heres the 1st Stellar Road tab
Fade Away
Stellar Road
Better Than Yesterday

Intro/ Verse

e-(3)--2h3p2--0---0-|
b--3---3-3-3--3---3-|
d--0---2-2-2--0---0-|
g--2----------0---2-|
a--2----------2---3-|
E-------------------|

the verse is more liek this... or just strum it

e----3-----------2h3p2--------0--------0----|
b----3---------3--------------3------3---3--|
g--0---------2------------0----------0----0-|
d-2------0----------------0-------2---------|
a-2---------------------2--------3----------|
E-------------------------------------------|
then when it goes to...

we'd make our escape, blinded by these simple ways...

e--0--2--(3)-0-|
b--3--3---3--3-|
g--0--2---0--0-|
d--0------2--2-|
a--2------2--3-|
E--3-----------|

when it gets to 'oh its time to grow' hold out the x22030 (Em7) chord.

when it gets to "then we'll fade away, fade away from trouble today" you play the intro/verse part again

then the "my best friends and me" part is

e--3------------2--------------0--------------0-|
b--3------------3--------------3--------------3-|
g--0------------2--------------0--------------0-|
d--2---------------------------0--------------2-|
a--2---------------------------2--------------3-|
E---------------------------------------------0-|
 Dance with me above the city, Drink with me not to be empty

e---3---2---------------------0---0-|
b---3---3---------------------3---2-|
g--0----2---------------------0---0-|
d-2---------------------------0---2-|
a-2---------------------------2---3-|
E-----------------------------------|
        My best friends and me

it goes through the 'dance with me' part again, then the second part is...

e-3--2-------------------------0---0-|
b-3--3-------------------------3---3-|
g-0--2-----------------------0-----0-|
d-2--------------------------0-----2-|
a-2------------------------2-------3-|
E------------------------------------|
     My best friends and me

the outro is the intro chords while this is being played

e-------------------------------------------------------|
b-----8--8-------8--8~-------8--8-----8--10-10h11p10--8-|
g-7h9-------7h9---------7h9-------7h9-------------------|
Расскажи друзьям!




Привет, гитарист!

Пройди супер-курс по гитаре и порази всех своей игрой!

Забрать курс!
ВАМ ПОДАРКИ ОТ ПРОЕКТА
"ГИТАРНАЯ РЕВОЛЮЦИЯ"