Gitaristu.ru
Аккорды Табулатура Начинающим Мастер-класс Софт Видео
Новости Анонсы Гитары Гитаристы Статьи Аватарки Минусовки
Поиск



Популярные подборы




Настройка гитары






Главная > Аккорды > S > Stellastarr

Аккорды
Stellastarr
-
Jenny bass (табулатура)

Не нашли аккорды к песне? Посмотрите на


Подбор прислал: gitaristu.ru
-------------------------------------------------------------------------------
			    Jenny - Stellastarr*
-------------------------------------------------------------------------------

Tabbed By : Michael Amico
e-mail: michael.amico@asu.edu

Tuning: standard
Intro/Verse
G|---------------------------------------------------7--------------7------------|
D|-----------------------------------------------7-9------------7-9--------------|
A|-------------------------------------7-7-77797------7-7-77797------------------|
E|-555555555555555555555555555555555---------------------------------------------|
Chorus/bridge (half speed)
G|---------------------------------------------------------------------------------|
D|---------------------------------------------------------------------------------|
A|-7-7-7-7/4-4-4-4--------4-4-4-4--------------------------------------------------|
E|-----------------4-4-4-4---------------------------------------------------------|
Not sure of the very end after singing stops but I think it's something like this
G|-------9----------------------------------------------------------------------|
D|------9-----------------------------------------------------------------------|
A|-77-79--------------------4-4444----------------------------------------------|
E|---------77-h9-7--44-4h54-----------------------------------------------------|


| /  slide up
| \  slide down
| h  hammer-on
| p  pull-off
| ~  vibrato
| +  harmonic
| x  Mute note
===============================================================================

Другие подборы этого исполнителя

Расскажи друзьям!




Привет, гитарист!

Пройди супер-курс по гитаре и порази всех своей игрой!

Забрать курс!
ВАМ ПОДАРКИ ОТ ПРОЕКТА
"ГИТАРНАЯ РЕВОЛЮЦИЯ"