Gitaristu.ru
Аккорды Табулатура Начинающим Мастер-класс Софт Видео
Новости Анонсы Гитары Гитаристы Статьи Аватарки Минусовки
Поиск



Популярные подборы




Настройка гитары






Главная > Аккорды > S > Stellastarr

Аккорды
Stellastarr
-
Pulp song (табулатура)

Не нашли аккорды к песне? Посмотрите на


Подбор прислал: gitaristu.ru


-------------------------------------------------------------------------------
			     Pulp Song - Stellastarr*
-------------------------------------------------------------------------------
Tabbed by: a story on the radio
Email: a_story_on_the_radio@hotmail.com

Tuning: normal tuning

i maY have got the spacing of the bars slightly out but if you know the song, you'll know where 
the changes are.

intro:    
   F (keep strummimg hard on top 2 strings) x 2
e|---------------------------------------------------------------------------|
B|---------------------------------------------------------------------------|
G|---------------------------------------------------------------------------|
D|-3-------------------------------------------------------------------------|
A|-3-------------------------------------------------------------------------|
E|-1-------------------------------------------------------------------------|


verses:
   F                                       C
e|---------------------------------------------------------------------------|
B|---------------------------------------------------------------------------|
G|-----------------------------------------5---------------------------------|
D|-3---------------------------------------5---------------------------------|
A|-3---------------------------------------3---------------------------------|
E|-1-------------------------------------------------------------------------|


chorus / outro:
   F                   Bb                  C
e|---------------------------------------------------------------------------|
B|---------------------------------------------------------------------------|
G|---------------------3-------------------5---------------------------------|
D|-3-------------------3-------------------5---------------------------------|
A|-3-------------------1-------------------3---------------------------------|
E|-1-------------------------------------------------------------------------|

sorry if this is a bit crap, but it's the first thing i've ever tabbed properly. kind of. 

a story on the radio
xxx


Другие подборы этого исполнителя

Расскажи друзьям!




Привет, гитарист!

Пройди супер-курс по гитаре и порази всех своей игрой!

Забрать курс!
ВАМ ПОДАРКИ ОТ ПРОЕКТА
"ГИТАРНАЯ РЕВОЛЮЦИЯ"