Gitaristu.ru
Аккорды Табулатура Начинающим Мастер-класс Софт Видео
Новости Анонсы Гитары Гитаристы Статьи Аватарки Минусовки
Поиск



Популярные подборы




Настройка гитары






Главная > Аккорды > S > Stephen Lynch

Аккорды
Stephen Lynch
-
Dd (табулатура)

Не нашли аккорды к песне? Посмотрите на


Подбор прислал: gitaristu.ru
----------------------------|
----------------------------|
----------------------------|
-2--2--2--------------------|
-2--2--2-2--2--2------------|
---------3--3--3------------| repeat 3 times or as needed


then play this
----------------------------|
----------------------------|
-2--------------------------|
-2---x--x--x--x--x--x-------|
-----x--x--x--x--x--x-------|
-----x--x--x--x--x--x-------|

Другие подборы этого исполнителя

Расскажи друзьям!




Привет, гитарист!

Пройди супер-курс по гитаре и порази всех своей игрой!

Забрать курс!
ВАМ ПОДАРКИ ОТ ПРОЕКТА
"ГИТАРНАЯ РЕВОЛЮЦИЯ"