Gitaristu.ru
Аккорды Табулатура Начинающим Мастер-класс Софт Видео
Новости Анонсы Гитары Гитаристы Статьи Аватарки Минусовки
Поиск



Популярные подборы




Настройка гитары






Главная > Аккорды > S > Stephen Lynch

Аккорды
Stephen Lynch
-
Dr stephen (табулатура)

Не нашли аккорды к песне? Посмотрите на


Подбор прислал: gitaristu.ru



Date: Tue, 25 Feb 2003 19:16:33 -0800
From: Jon Cutright 
Subject: l/lynch_stephen/dr_stephen.tab

As promised, here is some more Lynch from Superhero. 
This song is commonly called Gynecologist, especially 
in live recordings. Except for a few minor changes in 
words here and there, they are the same. As always, listen 
to the song to get the timing down and let me know if you 
have any questions.

Jon Cutright



Dr. Stephen
~~~~~~~~~~~~
by Stephen Lynch
from Superhero (2002)


These two similar riffs are played throughout the entire song. 
Various fills are played after some of them. I have tabbed out 
the fills below and noted where to play them.

[Rhythm Figure 1]					
e]-----------------------------------	
B]--2-2-2/3--2-2-2/3--2-2-2/3--2-----	
G]--2-2-2/3--2-2-2/3--2-2-2/3--2-----	
D]-----------------------------------	
A]--0-0-0----0-0-0----0-0-0----0----- 	
E]-----------------------------------	

[Rhythm Figure 2]
e]--0-0-0----0-0-0----0-0-0------
B]--2-2-2/3--2-2-2/3--2-2-2/3----
G]--2-2-2/3--2-2-2/3--2-2-2/3----
D]--2-2-2----2-2-2----2-2-2------
A]--0-0-0----0-0-0----0-0-0------
E]-------------------------------

Ok, here's how the songs goes....

[Rhythm Figure 1] [Fill 1]
[Rhythm Figure 1] [Fill 2]
[Rhythm Figure 1] [Fill 3]
[Rhythm Figure 1]

[Rhythm Figure 1] 
I'm a rich....
an expert in.... [2 knocks]

[Rhythm Figure 2] 
Next on my agenda.... 
If you get your nerve up....
I love puuuuuuuuuuu-ting....
I love puuuuuuuuuuu-shing....

Dr. Stephen's in.

[Rhythm Figure 1] [Fill 4]
[Rhythm Figure 1]

[Rhythm Figure 1]
I've got magic....
There's not a....

[Rhythm Figure 2]
When your legs are open....
I would just as soon not....
think that I'll stick to your c... front.

End on A

~~~~~~~~~~~~~~~~~~~~~~~~~~

[Fill 1]		 [Fill 2]

e]-------------- 	 e]----------------------   	
B]--3-2--------- 	 B]----------2h3p2h3p2---   	
G]------3-2-----	 G]------2-3-------------   	
D]----------3--- 	 D]--2-3-----------------   
A]-------------- 	 A]----------------------   
E]-------------- 	 E]----------------------   

[Fill 3]           [Fill 4]
e]--------------   e]--12---
B]--------------   B]-------
G]--------------   G]-------
D]--------------	 D]-------
A]--------------	 A]-------
E]--6^^^^^^^^---   E]-------


Другие подборы этого исполнителя

Расскажи друзьям!




Привет, гитарист!

Пройди супер-курс по гитаре и порази всех своей игрой!

Забрать курс!
ВАМ ПОДАРКИ ОТ ПРОЕКТА
"ГИТАРНАЯ РЕВОЛЮЦИЯ"