Gitaristu.ru
Аккорды Табулатура Начинающим Мастер-класс Софт Видео
Новости Анонсы Гитары Гитаристы Статьи Аватарки Минусовки
Поиск



Популярные подборы




Настройка гитары






Главная > Аккорды > S > Stephen Lynch

Аккорды
Stephen Lynch
-
Drink You Pretty (табулатура)

Не нашли аккорды к песне? Посмотрите на


Подбор прислал: gitaristu.ru
Drink You Pretty - Stephen Lynch
Tabbed by: Gaatsz
This song is hilarious (and true)!
-----------------------------------------------------------------------------


 INTRO
E:----0--0-|----0--0-|----0--0-|----0--0-|----0--0-|----0--0-|---------|
B:----2--2-|----2--2-|----2--2-|----2--2-|----2--2-|----2--2-|---------|
G:----2--2-|----2--2-|----2--2-|----2--2-|----2--2-|----2--2-|---------|
D:---------|---------|---------|---------|---------|---------|---------|
A:--0------|---------|--0------|---------|--0------|---------|--0------|
E:---------|--0------|---------|--0------|---------|--0------|-----0-2-4
                                                                   
E:----0--0-|----0--0-|----0--0-|----0--0-|----0--0-|----0--0-|---------|
B:----2--2-|----2--2-|----2--2-|----2--2-|----2--2-|----2--2-|---------|
G:----2--2-|----2--2-|----2--2-|----2--2-|----2--2-|----2--2-|---------|
D:---------|---------|---------|---------|---------|---------|---------|
A:--0------|---------|--0------|---------|--0------|---------|--0------|
E:---------|--0------|---------|--0------|---------|--0------|-----0-2-4

 VERSE
E:----0--0-|----0--0-|----2--2-|----2--2-|
B:----2--2-|----2--2-|----3--3-|----3--3-|
G:----2--2-|----2--2-|----2--2-|----2--2-|
D:---------|---------|--0--0---|--0--0---|
A:--0--0---|--0--0---|---------|---------|
E:---------|---------|---------|---------|

E:----0--0-|----0--0-|----2--2-|----2--2-|
B:----2--2-|----2--2-|----3--3-|----3--3-|
G:----2--2-|----2--2-|----2--2-|----2--2-|
D:---------|---------|--0--0---|--0--0---|
A:--0--0---|--0--0---|---------|---------|
E:---------|---------|---------|---------|

E:----0--0-|----0--0-|-0--0----|-0--0----|-0--2--0-|
B:----2--2-|----0--0-|-2--2----|-0--0----|-2--3--2-|
G:----2--2-|----1--1-|-2--2----|-1--1----|-2--2--2-|
D:---------|---------|-2--2----|-2--2----|-2--0--2-|
A:--0--0---|---------|-0--0----|-2--2----|-0-----0-|
E:---------|--0--0---|---------|-0--0----|---------|


Lyrics:

Everytime I drink a beer
It makes your lazy eye disappear
Everytime I do a shot
I think you're hot but I know you're not
Oh I'm just trying to drink you pretty
Hee-Haa

Другие подборы этого исполнителя

Расскажи друзьям!




Привет, гитарист!

Пройди супер-курс по гитаре и порази всех своей игрой!

Забрать курс!
ВАМ ПОДАРКИ ОТ ПРОЕКТА
"ГИТАРНАЯ РЕВОЛЮЦИЯ"