Gitaristu.ru
Аккорды Табулатура Начинающим Мастер-класс Софт Видео
Новости Анонсы Гитары Гитаристы Статьи Аватарки Минусовки
Поиск



Популярные подборы




Настройка гитары






Главная > Аккорды > S > Stephen Lynch

Аккорды
Stephen Lynch
-
For the ladies (табулатура)

Не нашли аккорды к песне? Посмотрите на


Подбор прислал: gitaristu.ru



Date: Thu, 11 Dec 2003 19:01:37 -0800
From: Jon Cutright 
Subject: l/lynch_stephen/for_the_ladies.tab

Here's yet another Lynch song from Superhero.... For The Ladies,
another request by Nathaniel Nelson. I'm glad to see there are some
Lynch fans out there using my tabs. This is one of his funnier, and more
controversial, tunes. As always, listen to the song to get the timing
down and let me know if you have any questions.

Jon Cutright



For The Ladies
~~~~~~~~~~~~~~~
by Stephen Lynch
from Superhero (2002)


INTRO:
This one's for all the ladies out there. 
You might want to save those whoo's

    C
e]--------0-------
B]----------1-----
G]------0-----0---
D]----2-----------
A]--3------------- 
E]----------------


VERSE:
    C		    F
e]--------0-----------0-------
B]----------1-------1---1-----
G]------0-----0---2-------2---
D]----2---------3-------------
A]--3-------------------------
E]----------------------------
I kissed you....

    Am		F
e]--------0-----------0-------
B]----------1-------1---1-----
G]------2-----2---2-------2---
D]----2---------3-------------
A]--0-------------------------
E]----------------------------
Good night my love....

    C		    F
e]--------0-----------0-------
B]----------1-------1---1-----
G]------0-----0---2-------2---
D]----2---------3-------------
A]--3-------------------------
E]----------------------------
You turn to me....

    Am		F
e]--------0-----------0-------
B]----------1-------1---1-----
G]------2-----2---2-------2---
D]----2---------3-------------
A]--0-------------------------
E]----------------------------
A baby's on....

    G		    G
e]--------3-----------3-------
B]----------0-----------0-----
G]------0-----0-----0-----0---
D]----------------------------
A]----2-----------2-----------
E]--3-----------3-------------
And then you....

    F		    F
e]--------0-----------0-------
B]------1---1-------1---1-----
G]----2-------2---2-------2---
D]--3-----------3-------------
A]----------------------------
E]----------------------------
To dream of....

    G		    G
e]--------3-----------3-------
B]----------0-----------0-----
G]------0-----0-----0-----0---
D]----------------------------
A]----2-----------2-----------
E]--3-----------3-------------
And I lie.... 

    F
e]--------0-------
B]------1---1-----
G]----2-------2---
D]--3-------------
A]----------------
E]----------------
Just what I...

F (strummed)
do.


CHORUS:
F G5    Am			G		F		 C
I could kick you....
        Am			 G		  F
C
I could swear to God....
       Am		     G		   F		       C
When I tell you that I....
     Dm	          C	             F
As I slowly slide the hanger....


I'm so sorry   I can't believe I just said that 
As I said, that one's for the ladies.


Chords used:
Am...x02210
C....332010
Dm...xx0231
G....320003
G5...355433
F....133211


Другие подборы этого исполнителя

Расскажи друзьям!




Привет, гитарист!

Пройди супер-курс по гитаре и порази всех своей игрой!

Забрать курс!
ВАМ ПОДАРКИ ОТ ПРОЕКТА
"ГИТАРНАЯ РЕВОЛЮЦИЯ"