Gitaristu.ru
Аккорды Табулатура Начинающим Мастер-класс Софт Видео
Новости Анонсы Гитары Гитаристы Статьи Аватарки Минусовки
Поиск



Популярные подборы




Настройка гитары






Главная > Аккорды > S > Stephen Lynch

Аккорды
Stephen Lynch
-
Just a little bit special (аккорды)

Не нашли аккорды к песне? Посмотрите на


Подбор прислал: gitaristu.ru



Date: Thu, 6 Mar 2003 17:20:14 EST
From: Fanofblnk182@aol.com
Subject: l/lynch_stephen/just_a_little_bit_special.crd

Song: Special Fred
Artist: Stephen Lynch
Tabbed by: Tanner Taz McMullen

I did all of this my self (just in case you were wondering why it sucked
so bad) I didn't copy it.

Intro: (right after Even if Fred was a little special
Until he starts to sing . . . . .
A:------------------------------------------------------------------------
B:-2-2-2-00-0-0-----------------------------------------------------------
G:-2-2-2-22-2-2-----------------------------------------------------------
D:-2-2-2-22-2-2-----------------------------------------------------------
A:-0-0-0-00-0-0-----------------------------------------------------------
E:------------------------------------------------------------------------

Verse
Until he sings but just a little dif-er-ent
A:------------------------------------------------------------------------
B:-2-2-2-00-0-0-2-2-2-00-0-0----------------------------------------------
G:-2-2-2-22-2-2-2-2-2-22-2-2----------------------------------------------
D:-2-2-2-22-2-2-2-2-2-22-2-2----------------------------------------------
A:-0-0-0-00-0-0-0-0-0-00-0-0----------------------------------------------
E:------------------------------------------------------------------------

When he sings that, play this
A:-2-2-2-2-2-2-2-2-0-0-0-0-0-0-0-0----------------------------------------
B:-3-3-3-3-3-3-3-3-0-0-0-0-0-0-0-0----------------------------------------
G:-4-4-4-4-4-4-4-4-1-1-1-1-1-1-1-1----------------------------------------
D:-4-4-4-4-4-4-4-4-2-2-2-2-2-2-2-2----------------------------------------
A:-2-2-2-2-2-2-2-2-2-2-2-2-2-2-2-2----------------------------------------
E:-2-2-2-2-2-2-2-2-0-0-0-0-0-0-0-0----------------------------------------

Chorus:
A:-0-0-0--02-2-2--22-2-2--20-0-0------------------------------------------
B:-2-2-2--22-2-2--23-3-3--30-0-0------------------------------------------
G:-2-2-2--22-2-2--24-4-4--41-1-1------------------------------------------
D:-2-2-2--24-4-4--44-4-4--42-2-2------------------------------------------
A:-0-0-0--04-4-4--42-2-2--22-2-2------------------------------------------
E:---------2-2-2--22-2-2--20-0-0------------------------------------------
   Special Fred,  mama     dropped
   On his  head   now he's not so
   Bright, instead, he's a little bit
   Special         just a little bit
   Special

Then the part where he's like Then one day talking to special Fred, he
grabbed a brick . . .

A:-444444444444444555555555555545-----------------------------------------
B:-666666666666666777777777777767-----------------------------------------
G:-666666666666666777777777777767-----------------------------------------
D:-666666666666666777777777777667-----------------------------------------
A:-444444444444444555555555555445-----------------------------------------
E:-444444444444444555555555555445-----------------------------------------
   Then one day   talking to special
   Fred, he grabbed brick and swung at my
    Head, as he sat there laughing that's when I knew . . . . 

Once you get there right when he says That special . . . 

A:-0-0-0-0-0--------------------------------------------------------------
B:-0-0-0-0-0--------------------------------------------------------------
G:-1-1-1-1-1--------------------------------------------------------------
D:-2-2-2-2-2--------------------------------------------------------------
A:-2-2-2-2-2--------------------------------------------------------------
E:-0-0-0-0-0--------------------------------------------------------------


Другие подборы этого исполнителя

Расскажи друзьям!




Привет, гитарист!

Пройди супер-курс по гитаре и порази всех своей игрой!

Забрать курс!
ВАМ ПОДАРКИ ОТ ПРОЕКТА
"ГИТАРНАЯ РЕВОЛЮЦИЯ"