Gitaristu.ru
Аккорды Табулатура Начинающим Мастер-класс Софт Видео
Новости Анонсы Гитары Гитаристы Статьи Аватарки Минусовки
Поиск



Популярные подборы




Настройка гитары






Главная > Аккорды > S > Stephen Lynch

Аккорды
Stephen Lynch
-
Lullaby (табулатура)

Не нашли аккорды к песне? Посмотрите на


Подбор прислал: gitaristu.ru



Date: Thu, 24 Jul 2003 18:46:45 -0700
From: Jon Cutright 
Subject: l/lynch_stephen/lullaby.tab

Here's the full tab for Lynch's Lullaby from his first album.  I just
got done with it, so if you see any glaring mistakes, let me know.
There's one chord in the bridge that I'm not sure about, but I think
it's correct.  As always, listen to the song to get the timing down and
let me know if you have any questions.

Jon Cutright




Lullaby
~~~~~~~~
by Stephen Lynch
from A Little Bit Special (2001)


*Capo on 2nd Fret*


INTRO:
e]--------0------------0------------0-----------0-------
B]------3---3--------3---3--------3---3-------3---3-----
G]----0-------0----0-------0----0------0----0-------0---  (x2)
D]----------------------------0-------------------------
A]---------------3------------------------3-------------
E]--0---------------------------------------------------


VERSE:
e]--------0------------0------------0-----------0-------
B]------3---3--------3---3--------3---3-------3---3-----
G]----0-------0----0-------0----0------0----0-------0---  (x4)
D]----------------------------0-------------------------
A]---------------3------------------------3-------------
E]--0---------------------------------------------------
  Hush, little girl....


PRE-CHORUS:
        Am			C
e]----------0-----------0------------0-----------0-------
B]--------1---1-------1---1--------1---1-------1---1-----
G]------2-------2---2-------2----0-------0---0-------0---
D]----------------0------------------------2-------------
A]--2-0------------------------3-------------------------
E]-------------------------------------------------------
      Why can't it all....

    G                        Dsus2
e]--------0-----------0------------0-----------0-------
B]------3---3-------3---3--------3---3-------3---3-----
G]----0-------0---0-------0----2-------2---2-------2---  (x2)
D]--------------0------------0-------------------------
A]---------------------------------------0-------------
E]--3--------------------------------------------------
    was before

Pick out the Dsus2 a few more times at the end, 
then into the Chorus....


CHORUS:
    G           Dsus2        Em7         C
e]--------3-----------0------------0-----------0-------
B]------0---0-------3---3--------3---3-------1---1-----
G]----0-------0---2-------2----0-------0---0-------0---  (x4)
D]--------------0--------------------------------------
A]---------------------------2-----------3-------------
E]--3--------------------------------------------------
Cause Daddy likes porno....


VERSE (x6)
left us.  Mommy left us....

PRE-CHORUS (x2)
Soon it will all....

CHORUS (x4)
But Daddy plays poker....


PRE-BRIDGE:
    Dsus2                        
e]--------0-----------0------------0-----------0-------
B]------3---3-------3---3--------3---3-------3---3-----
G]----2-------2---2-------2----2-------2---2-------2---
D]--0------------------------0-------------------------
A]--------------0------------------------0-------------
E]-----------------------------------------------------
    us.


BRIDGE:
    C                        Dsus2
e]--------0-----------0------------0-----------0-------
B]------1---1-------3---3--------3---3-------3---3-----
G]----0-------0---0-------0----2-------2---2-------2---
D]---------------------------0-------------------------
A]--3------------------------------------0-------------
E]--------------3--------------------------------------
  Please don't cry.

    C                        Dsus2
e]--------0-----------0------------0-----------0-------
B]------1---1-------3---3--------3---3-------3---3-----
G]----0-------0---0-------0----2-------2---2-------2---
D]---------------------------0-------------------------
A]--3------------------------------------0-------------
E]--------------3--------------------------------------
  I swear I'll try.

    C                        G
e]--------0-----------0------------3-----------3-------
B]------1---1-------3---3--------3---3-------3---3-----
G]----0-------0---0-------0----0-------0---0-------0---
D]---------------------------3-------------------------
A]--3------------------------------------3-------------
E]--------------3--------------------------------------
  To be here by....

    Dsus2                        
e]--------0-----------0----------
B]------3---3-------3---3--------
G]----2-------2---2-------2------
D]--0------------------------0---
A]--------------0----------------
E]-------------------------------
  your side.


CHORUS (x4)
Right after Daddy gets home....


OUTRO:
 G             Dsus2   Em   C  (x3)
-night.  Li-de-di....

End on G.


Chords used:
Am.....x02210
C......332010
Dsus2..xx0230
Em.....022000
Em7....022030
G......320033


Другие подборы этого исполнителя

Расскажи друзьям!




Привет, гитарист!

Пройди супер-курс по гитаре и порази всех своей игрой!

Забрать курс!
ВАМ ПОДАРКИ ОТ ПРОЕКТА
"ГИТАРНАЯ РЕВОЛЮЦИЯ"