Gitaristu.ru
Аккорды Табулатура Начинающим Мастер-класс Софт Видео
Новости Анонсы Гитары Гитаристы Статьи Аватарки Минусовки
Поиск



Популярные подборы




Настройка гитары






Главная > Аккорды > S > Stephen Lynch

Аккорды
Stephen Lynch
-
Special olympics (табулатура)

Не нашли аккорды к песне? Посмотрите на


Подбор прислал: gitaristu.ru



Date: Thu, 17 Jul 2003 17:46:25 -0700
From: Jon Cutright 
Subject: l/lynch_stephen/special_olympics.tab

Hey there Lynch fans  Here's one of Stephen classics, Special
Olympics.  I tabbed this out by listen to a recording from when he
played it on Opie and Anthony (since it's not on any of his albums).  I
think this is pretty damn close to correct.  Other live recordings might
have slightly different lyrics and/or notes played, but I think this
should get you through any version just fine.  As always, listen to the
song to get the timing down and let me know if you have any questions.

Jon Cutright



Special Olympics (live)
~~~~~~~~~~~~~~~~~~~~~~~~
by Stephen Lynch
from Opie and Anthony (date unknown)


VERSE 1:
e]--------2--------
B]------3---3------
G]----2-------2----  (x4)
D]--0--------------
A]-----------------
E]-----------------
  Watch them run, watch them....

e]--------3-----------3-----------0-----------0-------
B]------3---3-------3---3-------3---3-----------2-----
G]----0-------0---0-------0---0-------0-----2-----2---
D]----------------------------------------2-----------
A]--------------------------------------0-------------
E]--3-----------2-----------0-------------------------
  Olympics, Special O-

e]--------2--------
B]------3---3------
G]----2-------2----  (x4)
D]--0--------------
A]-----------------
E]-----------------
  -lympics.

e]--------2--------
B]------3---3------
G]----2-------2----  (x4)
D]--0--------------
A]-----------------
E]-----------------
  Watch them laugh, watch them....

e]--------0-----------0-----------0-----------0-------
B]------3---3-------3---3-------3---3-----------2-----
G]----0-------0---0-------0---0-------0-----2-----2---
D]----------------------------------------2-----------
A]--------------------------------------0-------------
E]--3-----------2-----------0-------------------------
  At the Special O-

e]--------2--------
B]------3---3------
G]----2-------2----  (x2)
D]--0--------------
A]-----------------
E]-----------------
  -lympics.

e]--------3-----------3-----------0-----------0-------
B]------3---3-------3---3-----------2-----------2-----
G]----0-------0---0-------0-----2-----2-----2-----2---
D]----------------------------2-----------2-----------
A]--------------------------0-----------0-------------
E]--3-----------3-------------------------------------
  And I know....

e]--------2-----------2-----------2-----------2-------
B]------3---3-------3---3-------3---3-------3---3-----
G]----2-------2---2-------2---2-------2---2-------2---
D]--0-------------------------------------------------
A]--------------4-----------2-----------0-------------
E]----------------------------------------------------
  That I will burn....

e]--------3-----------3-----------3-----------0-------
B]------3---3-------3---3-------3---3-------3---3-----
G]----0-------0---0-------0---0-------0---0-------0---
D]----------------------------------------------------
A]----------------------------------------------------
E]--3-----------3-----------3-----------3-------------
  But those guys playing.... 

e]--------0--------
B]----------2------
G]------2-----2----  (x2, then strum the A once)
D]----2------------
A]--0--------------
E]-----------------
  life.

e]--------2--------
B]------3---3------
G]----2-------2----  (x4)
D]--0--------------
A]-----------------
E]-----------------
  At the Special Olympics.


VERSE 2:
e]--------2--------
B]------3---3------
G]----2-------2----  (x4)
D]--0--------------
A]-----------------
E]-----------------
  Kid with Down's....

e]--------3-----------3-----------0-----------0-------
B]------3---3-------3---3-------3---3-----------2-----
G]----0-------0---0-------0---0-------0-----2-----2---
D]----------------------------------------2-----------
A]--------------------------------------0-------------
E]--3-----------2-----------0-------------------------
  Olympics, Special 

e]--------2--------
B]------3---3------
G]----2-------2----  (x4)
D]--0--------------
A]-----------------
E]-----------------
  Olympics.

e]--------2--------
B]------3---3------
G]----2-------2----  (x4)
D]--0--------------
A]-----------------
E]-----------------
  Round his neck gold medals....

e]--------3-----------3-----------0-----------0-------
B]------3---3-------3---3-------3---3-----------2-----
G]----0-------0---0-------0---0-------0-----2-----2---
D]----------------------------------------2-----------
A]--------------------------------------0-------------
E]--3-----------2-----------0-------------------------
  Olympics, Special

e]--------2--------
B]------3---3------
G]----2-------2----  (x2)
D]--0--------------
A]-----------------
E]-----------------
  Olympics.

e]--------3-----------3-----------0-----------0-------
B]------3---3-------3---3-----------2-----------2-----
G]----0-------0---0-------0-----2-----2-----2-----2---
D]----------------------------2-----------2-----------
A]--------------------------0-----------0-------------
E]--3-----------3-------------------------------------
  But I kid when....

e]--------2-----------2-----------2-----------2-------
B]------3---3-------3---3-------3---3-------3---3-----
G]----2-------2---2-------2---2-------2---2-------2---
D]--0-------------------------------------------------
A]--------------4-----------2-----------0-------------
E]----------------------------------------------------
  Cause these games....

e]--------3-----------3-----------3-----------0-------
B]------3---3-------3---3-------3---3-------3---3-----
G]----0-------0---0-------0---0-------0---0-------0---
D]----------------------------------------------------
A]----------------------------------------------------
E]--3-----------3-----------3-----------3-------------
Ok, really I'm just avoiding karma....

e]--------0--------
B]----------2------
G]------2-----2----  (x2, then strum the A once)
D]----2------------
A]--0--------------
E]-----------------
time.

                D
At the Special Olympics.


Другие подборы этого исполнителя

Расскажи друзьям!




Привет, гитарист!

Пройди супер-курс по гитаре и порази всех своей игрой!

Забрать курс!
ВАМ ПОДАРКИ ОТ ПРОЕКТА
"ГИТАРНАЯ РЕВОЛЮЦИЯ"