Gitaristu.ru
Аккорды Табулатура Начинающим Мастер-класс Софт Видео Форум Блог
Новости Анонсы Гитары Гитаристы Статьи Аватарки Минусовки
Поиск





Популярные подборы




Настройка гитары






Главная > Аккорды > T > Take That

Аккорды
Take That
-
Babe (1)



Подбор прислал: gitaristu.ru
Intro:

   Em Am D H

1:-0--0--2-2---
2:-0--1--3-4---
3:-0--2--2-4---
4:-2--2--0-4---
5:-2--0--0-2---
6:-0--0--0-2---


Version:

   Em D Am H     x2

1:-0--2--0-2--
2:-0--3--1-4--
3:-0--2--2-4--
4:-2--0--2-4--
5:-2--0--0-2--
6:-0--0--0-2--


   G D Am H Em

1:-3-2--0-2-0--
2:-0-3--1-4-0--
3:-0-2--2-4-0--
4:-0-0--2-4-2--
5:-2-0--0-2-2--
6:-3-0--0-2-0--


   G D Am H

1:-3-2--0-2--
2:-0-3--1-4--
3:-0-2--2-4--
4:-0-0--2-4--
5:-3-0--0-2--
6:-2-0--0-2--



Chorus:

   Em D Am H

1:-0--2-0--2--
2:-0--3-1--4--
3:-0--2-2--4--
4:-2--0-2--4--
5:-2--0-0--2--
6:-0--0-0--2--




after 2nd chorus:

   C D G D Em

1:-0-2-3-2-0--
2:-1-3-0-3-0--
3:-0-2-0-2-0--
4:-2-0-0-0-2--
5:-3-0-3-0-2--
6:-3-0-2-0-0--


   C D G    Am H

1:-0-2-3----0--2--
2:-1-3-0----1--4--
3:-0-2-0----2--4--
4:-2-0-0----2--4--
5:-3-0-2----0--2--
6:-3-0-3----0--2--


I come to your door
To see your again
But where you once stood
Was an old man instead
I asked where you'd be
He said She's moved on you see,
All I have is a number,
You'd better ask her not me
So I picked up the phone and dialled your number
Not sure to put it down or speak
Then a voice I knew answered in a sweet voice
She said hello then paused before I began to speak
Babe, I'm here again
I tell you I'm here again, where have you been
Babe, I'm back again
I tell you I'm back again, where have you been
You held your voice well
There were tears I could tell
But where were you now
Was you gonna tell me in time
Just give me a town
And I'll be straight down
Got so much to tell you
About where I have been
As I walk down your road
Can't wait to benear you
I can't keep the feeling inside
As I stand at your door
You answer in a sweet voice
she say hello then pause before I began to speak
Babe, I'm here again
I tell you I'm here again, where have you been
Babe, I'm back again
I tell you I'm back again, where have you been
Just as I looked away,
I saw a face behind you
A little boy stood at your door
And as I looked again,
I saw his face was shining
He had my eyes
He had my smile
Babe, I'm here again
I tell you I'm here again, where have you been
Babe, I'm back again
I tell you I'm back again, where have you been
Расскажи друзьям!




Войдите, используя Ваш аккаунт:



Забыли пароль?
Зарегистрироваться

Привет, гитарист!

Пройди супер-курс по гитаре и порази всех своей игрой!

Забрать курс!
ВАМ ПОДАРКИ ОТ ПРОЕКТА
"ГИТАРНАЯ РЕВОЛЮЦИЯ"