Gitaristu.ru
Аккорды Табулатура Начинающим Мастер-класс Софт Видео Форум Блог
Новости Анонсы Гитары Гитаристы Статьи Аватарки Минусовки
Поиск





Популярные подборы




Настройка гитары






Главная > Аккорды > T > Take That

Аккорды
Take That
-
When We Were Young



Подбор прислал: gitaristu.ru
Take that- when we were young -july 2011.


                       play these 3
intro                  notes more quick
                hold  /-------| 
e|---------------0---------0---------------------------------------------------|
B|---0-----3-----------1-------1------3-----3------0---------------------------|
G|---------------0---------0-----------------------------2-------0-------0-----|
D|---0--------------------------------------0------------0---------------0-----|
A|---------------3-------------------------------------------------------------|
E|-----------------------------------------------------------------------3-----|

e|-------------------------------------------------------------------------|
B|-------------------------------------------------------------------------|
G|------0-------0--------0------0--------0------0---------0----------------|
D|------------------------------0------------------------------------------|
A|-------------------------------------------------------------------------|
E|--------------3---------------3---------------3--------------------------|

G
When we were young the world seemed so old
Em
Careless and cold
                                C   Am
We did what we were told in our lifes
               D
When we were young
G
Had the world by the tail
Good would prevail
Em
Starships at sail
                              C     Am
And none of us would fail in this life
                  D
Not when you
Расскажи друзьям!




Войдите, используя Ваш аккаунт:



Забыли пароль?
Зарегистрироваться

Привет, гитарист!

Пройди супер-курс по гитаре и порази всех своей игрой!

Забрать курс!
ВАМ ПОДАРКИ ОТ ПРОЕКТА
"ГИТАРНАЯ РЕВОЛЮЦИЯ"