Gitaristu.ru
Аккорды Табулатура Начинающим Мастер-класс Софт Видео Форум Блог
Новости Анонсы Гитары Гитаристы Статьи Аватарки Минусовки
Поиск





Популярные подборы




Настройка гитары






Главная > Аккорды > T > Takida

Аккорды
Takida
-
Another Day (табулатура)



Подбор прислал: gitaristu.ru
                                takida - Another day


tabed by Tony Larsson email: rock_boy90@hotmail.com

h hammer


INTRO
e|--------------------------------------------------|
b|--------------------------------------------------|
g|-----0-----0----0-------0-------------------------|
d|---------2--------0-0-----0-0---------------------|same as verse
a|---2----------------------------------------------|
e|-0-----0------3-------2---------------------------|

e|--------------------------------------------------|
b|--9-7-5h7-5-----5h7--9-7-5h7----------------------|
g|------------5h7--------------5--------------------|
d|--------------------------------------------------|
a|--------------------------------------------------|
e|--------------------------------------------------|


CHORUS:  hey now,were,,,     | another day the feeling stay the same
e|---------------------------|---------------------------------------|
b|---------------------------|---------------------------------------|
g|---------------7777--------|---------------------------------------|
d|-9999--55555---7777--77777-|--5555555555---------------------------|
a|-9999--55555---5555--77777-|--5555555555---------------------------|
e|-7777--33333---------55555-|--3333333333---------------------------|

verse:
e|--------------------------------------------------|
b|--------------------------------------------------|
g|-----0-----0----0-------0-------------------------|
d|---------2--------0-0-----0-0---------------------|
a|---2----------------------------------------------|
e|-0-----0------3-------2---------------------------|

another mission they search for light..| fall in , fall out 
e|-------------------------------------|------------------------|
b|-------------------------------------|------------------------|
g|-------------------------------------|------------------------|
d|-9999--77777-------------------------|--99--7777777-----------|
a|-9999--77777-keep p
Расскажи друзьям!




Войдите, используя Ваш аккаунт:



Забыли пароль?
Зарегистрироваться

Привет, гитарист!

Пройди супер-курс по гитаре и порази всех своей игрой!

Забрать курс!
ВАМ ПОДАРКИ ОТ ПРОЕКТА
"ГИТАРНАЯ РЕВОЛЮЦИЯ"