Gitaristu.ru
Аккорды Табулатура Начинающим Мастер-класс Софт Видео Форум Блог
Новости Анонсы Гитары Гитаристы Статьи Аватарки Минусовки
Поиск





Популярные подборы




Настройка гитары






Главная > Аккорды > T > Takida

Аккорды
Takida
-
Burning inside (табулатура)



Подбор прислал: gitaristu.ru



Date: Fri, 28 Apr 2006 19:42:03 +0200
From: Erik Carlsson 
Subject: t/takida/burning_inside.tab


----------------------------------------------------------------------------
                                      Burning Inside - Takida
----------------------------------------------------------------------------

Tabbed by: Erik Carlsson

Email: aussiebucky@hotmail.com

 

The lead guitar is not 100% accurate during the choruses (especially
not the last chorus), but it's the best I could be bothered figuring
out, please feel free to tab it yourself and e-mail it too me 

 

Tuning: Standard (EADGBe)

 

Verse figures:

Figure 1:

e|--------------------------------|

B|--------------------------------|

G|-9h12-9--9h12----9h12-9-10p9----|

D|--------------12-------------12-|

A|--------------------------------|

E|--------------------------------|

 

Figure 2:

e|-----------------------------------------|

B|-----------------------------------------|

G|-9h12-9--9h12----9h12----9h12-9-10p9-----|

D|--------------12------10-------------12--|

A|-----------------------------------------|

E|-----------------------------------------|

 

Figure 3:

e|-12-10----------10-12-10-------------|

B|-------13-12-13----------13-12-13----|

G|----------------------------------12-|

D|-------------------------------------|

A|-------------------------------------|

E|-------------------------------------|

 

 

Chorus figures:

Figure 4:

e|------------------------------------------------------------|

B|------------------------------------------------------------|

G|-12-9---12------12--------------12-9---12------12---------9-|

D|-----------12------10---10-12-------------12------10---10---|

A|------------------------------------------------------------|

E|------------------------------------------------------------|

 

Figure 5:

e|--------------------------------------------------------------------------
-|

B|--------------------------------------------------------------------------
-|

G|12-9-9-12-9-9-12-9-12-----12-----12--12-----12-----12--12-----12-----12--9
-|

D|---------------------12-12--12-12--12--10-10--10-10--10--12-12--12-12--12-
-|

A|--------------------------------------------------------------------------
-|

E|--------------------------------------------------------------------------
-|

 

Solo figures:

Figure 6:

e|--------------------------------------------------------------------------
-|

B|--------------------------------------------------------------------------
-|

G|--------------------------------------------------------------------------
-|

D|-10-10-10p9-------9h10-10-10-9-9-9-7-9-10-7-5h7p5--10-10-10-----------7---
-|

A|------------10-10--------------------------------8----------10-10-10-8--10
-|

E|--------------------------------------------------------------------------
-|

 

Intro:

*(Figure 1)

. C . G . A . F G .

 

Verse:

*(Figure 2)

C               G              A

It's alright now when you're here

F                      G

A bit of hope when you look into my eyes

C                G

Follow me to the other side

A

You will never walk alone

    F            G

I'm always by your side

C       G                  A

Hold on tight when we fall into the night

                 F           G

I will guard you now and the rest of my life

 

 

*(Figure 3)

C                      G                  A

But there's one bitter lie, how I did you wrong

                              F          G

It wears me out and leaves me naked, the truth is

       A

always strong

 

 

Bridge:

                F

I'm knocked down by your eyes

G

I think it's gonna happen

 

 

Chorus:

*(Figure 4)

C                 G                      A

She's kind of weak she's/and not too fine

            F       C              G     F   G

But I'm burning inside and I'm shaking again

*(Figure 5)

C                 G                      A

She's kind of weak she's/and not too fine

            F       C              G     F   G

But I'm burning inside and I'm shaking again

 

 

*(Figure 1)

. C . G . A . F G .

 

*(Figure 2)

C              G               A

It's colder now and you're not home

    F          G

I'm all awake, thinking of my own

 

*(Figure 3)

C               G

Feels like it's coming down

                    A

It hurts being with me

             F   G                  A

Don't walk away, can't you hear the scream

 

 

Bridge:

               F

When she's gone I don't know

G

Please tell me if it's gonna happen

 

Chorus:

*(Figure 4)

C                 G                      A

She's kind of weak she's/and not too fine

            F       C              G     F   G

But I'm burning inside and I'm shaking again

*(Figure 5)

C                 G                      A

She's kind of weak she's/and not too fine

            F       C              G     F   G

But I'm burning inside and I'm shaking again

 

Solo:

*(Figure 6)

. C . G . G . A . F . C . G . F

 

F            A

I'm sorry now I'll make it up somehow

F                      G

Hurt me with something more and more

 

Chorus:

*(Figure 4)

C     G            A  F

She's kind of weak

C       G       F      G

But I'm burning inside

*(Figure 5)

C                 G                      A

She's kind of weak she's/and not too fine

            F       C              G     F   G  C

But I'm burning inside and I'm shaking again


Расскажи друзьям!




Войдите, используя Ваш аккаунт:



Забыли пароль?
Зарегистрироваться

Привет, гитарист!

Пройди супер-курс по гитаре и порази всех своей игрой!

Забрать курс!
ВАМ ПОДАРКИ ОТ ПРОЕКТА
"ГИТАРНАЯ РЕВОЛЮЦИЯ"