Gitaristu.ru
Аккорды Табулатура Начинающим Мастер-класс Софт Видео Форум Блог
Новости Анонсы Гитары Гитаристы Статьи Аватарки Минусовки
Поиск





Популярные подборы




Настройка гитары






Главная > Аккорды > T > Takida

Аккорды
Takida
-
Handlake Village (табулатура)



Подбор прислал: gitaristu.ru
Takida - Handlake Village

Tabbed by Jonas (jonis123@hotmail.com)

INTRO

e------------------------------------|
B-----------2-0-------------2-0------|
G---3-3-3-3-----3---3-3-3-3-----3----|
D-4---------------4------------------|
A------------------------------------|
D------------------------------------|

VERSE (play same riff as the Intro)

e------------------------------------|
B-----------2-0-------------2-0------|
G---3-3-3-3-----3---3-3-3-3-----3----|
D-4---------------4------------------|
A------------------------------------|
D------------------------------------|Repeat until Chorus

Lyrics on Verse:

It
Расскажи друзьям!




Войдите, используя Ваш аккаунт:



Забыли пароль?
Зарегистрироваться

Привет, гитарист!

Пройди супер-курс по гитаре и порази всех своей игрой!

Забрать курс!
ВАМ ПОДАРКИ ОТ ПРОЕКТА
"ГИТАРНАЯ РЕВОЛЮЦИЯ"