Gitaristu.ru
Аккорды Табулатура Начинающим Мастер-класс Софт Видео Форум Блог
Новости Анонсы Гитары Гитаристы Статьи Аватарки Минусовки
Поиск





Популярные подборы




Настройка гитары






Главная > Аккорды > T > Takida

Аккорды
Takida
-
Reason to cry (табулатура)



Подбор прислал: gitaristu.ru



Date: Fri, 28 Apr 2006 19:46:53 +0200
From: Erik Carlsson 
Subject: t/takida/reason_to_cry.tab


----------------------------------------------------------------------------
                                      Reason To Cry - Takida
----------------------------------------------------------------------------

Tabbed by: Erik Carlsson

Email: aussiebucky@hotmail.com

 

Tuning: Drop-D

 

I don't think this is 100% accurate, not the verses and the intro
anyway, but it's not too far off anyway. Enjoy 

 

The brackets:

In the intro: You can skip teh brackets, I'm not too sure if it's
played like that anyway.

In the verse: you already play those notes, but it sounds cool.

In the chorus: only played the second time.

 

Intro:

e|---------------------|---------------------|--------------|--------------|
B|---------------------|---------------------|----8---------|----8---------|
G|--(7-7-7-7)----------|--(7-7-7-7)----------|---9--5-5-5-5-|---9--7-7-7-7-|
D|-5h7-7-7-7-5-5-5-5-5-|-5h7-7-7-7-5-5-5-5-5-|--9---5-5-5-5-|--9---7-7-7-7-|
A|(5-5-5-5-5-5-5-5-5-5)|(5-5-5-5-5-5-5-5-5-5)|-7----3-3-3-3-|-7----5-5-5-5-|
D|-5-5-5-5-5-5-5-5-5-5-|-5-5-5-5-5-5-5-5-5-5-|--------------|--------------|
  X2

All this time, All this time with you

You really loved me despite my faults and you knew

 

Bridge:

e|----------|

B|----------|

G|-5--------|

D|-5--------|

A|-3--------|

D|----------|

And you're not coming back, I've got a reason to cry

 

 

Verse:

e|------------------|------------------|--------------|--------------|

B|--------(0-0-0-0)-|--------(0-0-0-0)-|----8---------|----8---------|

G|---------4-4-4-4--|---------4-4-4-4--|---9--5-5-5-5-|---9--7-7-7-7-|

D|-7-7-7-7-5-5-5-5--|-7-7-7-7-5-5-5-5--|--9---5-5-5-5-|--9---7-7-7-7-|

A|------------------|------------------|-7----3-3-3-3-|-7----5-5-5-5-|

D|-5-5-5-5-5-5-5-5--|-5-5-5-5-5-5-5-5--|--------------|--------------| 
X4

The bottle's empty, The bottle's empty and cold

Just like I've been, Since I heard that you died alone

Finally home now, And I try to accept that you're gone

Wish I could have, Been there for you all along

 

Bridge:

e|----------|

B|----------|

G|-5--------|

D|-5--------|

A|-3--------|

D|----------|

With your back against the ground

 

Chorus:

Lead Guitar: (the stuff in the brackets is only played the second
time)

e|-10-------------|-10-------------|-10-------------|--------------------|

B|----12-10-------|----12-10-12----|----12-10-------|--------------------|

G|----------12-11-|-------------12-|----------12----|-11h12p11-------(9)-|

D|----------------|----------------|-------------12-|----------12--(9)---|

A|----------------|----------------|----------------|--------------------|

D|----------------|----------------|----------------|--------------------| 
X2

 

Rhythm Guitar:

e|-----------------|-----------------|-----------------|-----------------|

B|-----------------|-----------------|-----------------|-----------------|

G|-----------------|-5-5-5-5-5-5-5-5-|-----------------|-7-7-7-7-7-7-7-7-|

D|-2-2-2-2-2-2-2-2-|-5-5-5-5-5-5-5-5-|-5-5-5-5-5-5-5-5-|-7-7-7-7-7-7-7-7-|

A|-2-2-2-2-2-2-2-2-|-3-3-3-3-3-3-3-3-|-5-5-5-5-5-5-5-5-|-5-5-5-5-5-5-5-5-|

D|-2-2-2-2-2-2-2-2-|-----------------|-5-5-5-5-5-5-5-5-|-----------------| 
X2

All I want, All I need, Is to make you breathe

All that I want, All that I need, Is to make you breathe

 

 

Bridge:

e|----------|

B|----------|

G|-5--------|

D|-5--------|

A|-3--------|

D|----------|

Yeah you failed somehow, but I know that you tried

 

 

Stick:

e|------------------|------------------|

B|--------(0-0-0-0)-|--------(0-0-0-0)-|

G|---------4-4-4-4--|---------4-4-4-4--|

D|-7-7-7-7-5-5-5-5--|-7-7-7-7-5-5-5-5--|

A|------------------|------------------|

D|-5-5-5-5-5-5-5-5--|-5-5-5-5-5-5-5-5--|

 

 

Solo:

Lead guitar:

e|-----------------------------------------------------------|

B|-----------------------------------------------------------|

G|------12---------------------------------------------------|

D|-9-10---------12---12-10-10-10-9-9h10p9--------------------|

A|---------9-10---------------------------10-10-9-10-10h12-7-|

D|-----------------------------------------------------------|

 

e|------------------------------------------------------|

B|--------------------------------12-13-12-10-12-10-----|

G|-12-12-12-11-11-11--------------------------------12~-|

D|-------------------14-12h14-12------------------------|

A|------------------------------------------------------|

D|------------------------------------------------------|

 

Rhythm Guitar:

e|------------------------------------------------------------------|

B|------------------------------------------------------------------|

G|-----------------5-5-5-5-5-5-5-5-7-7-7-7-7-7-7-7---------7-7-7-7--|

D|-2-2-2-2-2-2-2-2-5-5-5-5-5-5-5-5-7-7-7-7-7-7-7-7-5-5-5-5-7-7-7-7--|

A|-2-2-2-2-2-2-2-2-3-3-3-3-3-3-3-3-5-5-5-5-5-5-5-5-5-5-5-5-5-5-5-5--|

D|-2-2-2-2-2-2-2-2---------------------------------5-5-5-5----------|

 

 

Bridge:

e|----------|

B|----------|

G|-5--------|

D|-5--------|

A|-3--------|

D|----------|

And you're not coming back, I've got a reason to cry

 

 

Intro/Verse/Something:

e|---------------------|---------------------|--------------|--------------|
B|---------------------|---------------------|----8---------|----8---------|
G|--(7-7-7-7)----------|--(7-7-7-7)----------|---9--5-5-5-5-|---9--7-7-7-7-|
D|-5h7-7-7-7-5-5-5-5-5-|-5h7-7-7-7-5-5-5-5-5-|--9---5-5-5-5-|--9---7-7-7-7-|
A|(5-5-5-5-5-5-5-5-5-5)|(5-5-5-5-5-5-5-5-5-5)|-7----3-3-3-3-|-7----5-5-5-5-|
D|-5-5-5-5-5-5-5-5-5-5-|-5-5-5-5-5-5-5-5-5-5-|--------------|--------------|
  X2

All this time, All this time with you

You really loved me despite my faults and you knew

 

Bridge:

e|----------|

B|----------|

G|-5--------|

D|-5--------|

A|-3--------|

D|----------|

With your back against the ground

 

 

Chorus:

Lead Guitar: (the stuff in the brackets is only played the second
time)

e|-10-------------|-10-------------|-10-------------|--------------------|

B|----12-10-------|----12-10-12----|----12-10-------|--------------------|

G|----------12-11-|-------------12-|----------12----|-11h12p11-------(9)-|

D|----------------|----------------|-------------12-|----------12--(9)---|

A|----------------|----------------|----------------|--------------------|

D|----------------|----------------|----------------|--------------------| 
X

 

Rhythm Guitar:

e|-----------------|-----------------|-----------------|-----------------|

B|-----------------|-----------------|-----------------|-----------------|

G|-----------------|-5-5-5-5-5-5-5-5-|-----------------|-7-7-7-7-7-7-7-7-|

D|-2-2-2-2-2-2-2-2-|-5-5-5-5-5-5-5-5-|-5-5-5-5-5-5-5-5-|-7-7-7-7-7-7-7-7-|

A|-2-2-2-2-2-2-2-2-|-3-3-3-3-3-3-3-3-|-5-5-5-5-5-5-5-5-|-5-5-5-5-5-5-5-5-|

D|-2-2-2-2-2-2-2-2-|-----------------|-5-5-5-5-5-5-5-5-|-----------------| 
X

All I want, All I need, Is to make you breathe

All that I want, All that I need, Is to make you breathe

It's all that I want, It's all that I need, Please begin to breathe

All I want, All I need, Hey yeah yeah..

 

 

Outro:

e|----------|

B|-----8----|

G|---0------|

D|----------|

A|----------|

D|-5--------|

 

 

 

| /  slide up

|   slide down

| h  hammer-on

| p  pull-off

| ~  vibrato

| +  harmonic

| x  Mute note

============================================================================


Расскажи друзьям!




Войдите, используя Ваш аккаунт:



Забыли пароль?
Зарегистрироваться

Привет, гитарист!

Пройди супер-курс по гитаре и порази всех своей игрой!

Забрать курс!
ВАМ ПОДАРКИ ОТ ПРОЕКТА
"ГИТАРНАЯ РЕВОЛЮЦИЯ"