Gitaristu.ru
Аккорды Табулатура Начинающим Мастер-класс Софт Видео Форум Блог
Новости Анонсы Гитары Гитаристы Статьи Аватарки Минусовки
Поиск





Популярные подборы




Настройка гитары






Главная > Аккорды > T > Tityo

Аккорды
Tityo
-
Come Along (табулатура)



Подбор прислал: gitaristu.ru
Come Along (Tityo)

by seboddos aka zappy the koala

e|---------------|---------------|
b|---------------|---------------|
G|*-------5------|----------5---*| repeat 3x
D|*3----/6------3|-----/8\6-----*| 
A|-3----/6------3|-----/8\6------|
E|---------------|---------------|

Verse:
e|---------------|---------------|
b|---------------|---------------|
G|*-------5------|----------5---*| 3x
D|*3----/6------3|-----/8\6-----*| 
A|-3----/6------3|-----/8\6------|
E|---------------|---------------|

e---------------|---------------|
b-/6------------|---------------|
G-/6-----/5-----|-------------5-|
D-/6-----/6----3|--------/8\6---| 
A--------/6----3|--------/8\6---|
E---------------|---------------|

Fm		Cm		Fm  		Cm
Play with it while you have hands
Fm		Cm		Fm  		Cm
Dust settles, cities turn to sand
Fm		Cm		Fm  		Cm
Trespassing this is their land
Db				Ab	Fm
Time flies, make a statement, take a stand

Fm		
Come along now
Cm
Come along with me
Fm
Come along now 
Cm
Come along and you
Расскажи друзьям!




Войдите, используя Ваш аккаунт:



Забыли пароль?
Зарегистрироваться

Привет, гитарист!

Пройди супер-курс по гитаре и порази всех своей игрой!

Забрать курс!
ВАМ ПОДАРКИ ОТ ПРОЕКТА
"ГИТАРНАЯ РЕВОЛЮЦИЯ"