Gitaristu.ru
Аккорды Табулатура Начинающим Мастер-класс Софт Видео Форум Блог
Новости Анонсы Гитары Гитаристы Статьи Аватарки Минусовки
Поиск





Популярные подборы




Настройка гитары






Главная > Аккорды > T > Tm Revolution

Аккорды
Tm Revolution
-
Resonance bass (табулатура)



Подбор прислал: gitaristu.ru
This is my first tab. I'm pretty sure it's accurate but hey I could be wrong. 

The song is in standard E tuning.

[Intro]

G-------------|
D-------------|
A-------------|
E-8-8-5-5-7-7-|

G-------------------------------|
D-------------------------------|
A--------------4----4-6-7-6-4---| (3x)
E-5-4-5-7--5-7----7-----------7-|

G----------------|
D----------------|
A--------------4-|
E-5-4-5-7--5-7---|

[Main Riff]

G-------------------------------|
D-------------------------------|
A--------------4----4-6-7-6-4---| (4x)
E-5-4-5-7--5-7----7-----------7-|

[Chorus]

G----------------------------------------------------------------|
D----------------------------------------------------------------|
A-3-3-6-3-3-3-6-3-6-6-3-6--4h6p4-6-4-4---4---4-6-3-3-6-3-3-3-6-3-| (4x)
E--------------------------------------6---6---------------------|

G----------------------------------------|
D-------------------------12/13\12-------|
A-11----11-13----13-15-------------13----|
E----11-------13-------15-------------13-|

G-------------------------------|
D-------------------------------|
A-11----11-13----13-------------|
E----11-------13----8-8-4-4-6-6-|

[Main Riff]

G-------------------------------|
D-------------------------------|
A--------------4----4-6-7-6-4---| (8x)
E-5-4-5-7--5-7----7-----------7-|

[Chorus]

G----------------------------------------------------------------|
D----------------------------------------------------------------|
A-3-3-6-3-3-3-6-3-6-6-3-6--4h6p4-6-4-4---4---4-6-3-3-6-3-3-3-6-3-| (4x)
E--------------------------------------6---6---------------------|

G----------------------------------------|
D-------------------------12/13\12-------|
A-11----11-13----13-15-------------13----|
E----11-------13-------15-------------13-|

G-------------------------------|
D-------------------------------|
A-11----11-13----13-------------|
E----11-------13----8-8-4-4-6-6-|

[Main Riff]

G-------------------------------|
D-------------------------------|
A--------------4----4-6-7-6-4---| (8x)
E-5-4-5-7--5-7----7-----------7-|

[Bridge]

G---------------|---------------|
D---------------|-7~--6~--------|
A-3~--4~--3---4-|---------7-6---|
E-----------4---|-------------4-|


[Main Riff]

G-------------------------------|
D-------------------------------|
A--------------4----4-6-7-6-4---| (3x)
E-5-4-5-7--5-7----7-----------7-|

G----------------|
D----------------|
A--------------4-|
E-5-4-5-7--5-7---|

G-------------------------------|
D-------------------------------|
A--------------4----4-6-7-6-4---| (8x)
E-5-4-5-7--5-7----7-----------7-|

[Chorus]

G----------------------------------------------------------------|
D----------------------------------------------------------------|
A-3-3-6-3-3-3-6-3-6-6-3-6--4h6p4-6-4-4---4---4-6-3-3-6-3-3-3-6-3-|
E--------------------------------------6---6---------------------|

Do this until the song finishes.


Расскажи друзьям!




Войдите, используя Ваш аккаунт:



Забыли пароль?
Зарегистрироваться

Привет, гитарист!

Пройди супер-курс по гитаре и порази всех своей игрой!

Забрать курс!
ВАМ ПОДАРКИ ОТ ПРОЕКТА
"ГИТАРНАЯ РЕВОЛЮЦИЯ"