Gitaristu.ru
Аккорды Табулатура Начинающим Мастер-класс Софт Видео Форум Блог
Новости Анонсы Гитары Гитаристы Статьи Аватарки Минусовки
Поиск





Популярные подборы




Настройка гитары






Главная > Аккорды > T > Tobias Regner

Аккорды
Tobias Regner
-
All My Life (табулатура)



Подбор прислал: gitaristu.ru
Drop D Tuning

Artist: Tobias Regner
Song: All My Life

The Song starts With a Keyboard part.

Chorus
---------------------------------------------------------------------------|
---------------------------------------------------------------------------|
--3-3----3-3----3-3-------------------------3-3----3-3----3-3--------------|
--3-3----3-3----3-3-------------------------3-3----3-3----3-3--------------|
--1-1----1-1----1-1----0-0----0-0----0-0----1-1----1-1----1-1-xx-xxxx-xx---|
-----------------------0-0----0-0----0-0----------------------xx-xxxx-xx---|  1x


------------------------------------------------------------------------|
------------------------------------------------------------------------|
--3-3----3-3----3-3-------------------------3-3----3-3----3-3-----------|
--3-3----3-3----3-3-------------------------3-3----3-3----3-3-----------|
--1-1----1-1----1-1----0-0----0-0----0-0----1-1----1-1----1-1--0--------|
-----------------------0-0----0-0----0-0-----------------------0--------|

Strophe
------------------------------------------------------------------------|
------------------------------------------------------------------------|
---------------------3--------------------------------------3-----------|
---------------------3--------------------------------------3-----------|
--0---------3--------1---------7---------0----------3-------1---------7-|
--0---------3------------------7---------0----------3-----------------7-|


Interlude (Hard Distortion!!!!!!)

---------------------------------------------------|
---------------------------------------------------|
---------------------------------------------------|
---------------------------------------------------|
-xxxxx--x--xx---x-xxx--------xxxxx--x--xx---x-xxx--|
-xxxxx--x--xx---x-xxx--------xxxxx--x--xx---x-xxx--|8x

Chorus    2x
Strophe   2x
Chorus    2x
Strophe   2x
Refrain   2x
Interlude 8x
Bridge    1x
Chorus    3x

Play it yand have Fun!!!!
Расскажи друзьям!




Войдите, используя Ваш аккаунт:



Забыли пароль?
Зарегистрироваться

Привет, гитарист!

Пройди супер-курс по гитаре и порази всех своей игрой!

Забрать курс!
ВАМ ПОДАРКИ ОТ ПРОЕКТА
"ГИТАРНАЯ РЕВОЛЮЦИЯ"